Issuu on Google+

EXPERIMENTACIONES

& DIVAGACIONES ZURSOIF

parte II


solitude

noun 1 she savored her solitude loneliness, solitariness, isolation, seclusion, sequestration, withdrawal, privacy, peace. 2 (solitudes) : solitudes in the north of the state wilderness, rural area, wilds, backwoods; desert, emptiness, wasteland; the bush, backcountry; informal the sticks, the boondocks.

solitude |ˈsäləˌt(y)oōd|

noun the state or situation of being alone : she savored her few hours of freedom and solitude. • a lonely or uninhabited place. ORIGIN Middle English : from Old French, or from Latin solitudo, from solus ‘alone.’

THE RIGHT WORD Loneliness, which refers to a lack of companionship and is often associated with unhappiness, should not be confused with solitude, which is the state of being alone or cut off from all human contact (: the solitude of the lighthouse keeper). You can be in the midst of a crowd of people and still experience loneliness, but not solitude, since you are not physically alone. Similarly, if you enjoy being alone, you can have solitude without loneliness. Lonesomeness is more intense than loneliness, suggesting the downheartedness you may experience when a loved one is absent (: she experienced lonesomeness following the death of her dog). Desolation is more intense still, referring to a state of being utterly alone or forsaken (:


the widow’s desolation). Desolation can also indicate a state of ruin or barrenness (: the desolation of the volcanic islands). Alienation, disaffection, and estrangement have less to do with being or feeling alone and more to do with emotions that change over time. Alienation is a word that suggests a feeling of unrelatedness, especially a feeling of distance from your social or intellectual environment (: alienation from society). Disaffection suggests that you now feel indifference or even distaste toward someone of you were once fond of (: a wife’s growing disaffection for her husband), while estrangement is a voluntary disaffection that can result in complete separation and strong feelings of dislike or hatred (: a daughter’s estrangement from her parents).

Solitude (soledad). (...)por un breve momento dudé de tener estás páginas llenas de inglés, pero al encontrar la corta definición que trae el RAE de la palabra soledad no me quedó más que dejar la definición y las aclaraciones correspondientes. He aprendido que Soledad no sólo puede significar estar solo, pero que también depende del espacio que nos rodea, de los sentimientos que implica y de lo devastador que queremos que suene, jejeje. He sido víctima y victimario, por lo tanto ya se lo que se siente ser abandonado (en cuyo caso la soledad es atroz por momentos) y quien abandona. sentir el bajón de alegría o la libertad de una decisión hecha a tiempo, pero lo que no puedo, de ninguna manera, es decir cual es la palabra a utilizar. Me siento solo, sólo eso. Solitude (Solitude).


cómo puede ser que alguien encuentre tanta amargura en el pasado para decidir que el nombre que le dieron y la educación que recibió son cosas sobrevaloradas y decida matar lo que algunas personas conocen para intentar creer en algo que tenga un plan con un final… a veces creo que me falta recuperar el dedo que perdió ese inútil que fui un día jugando a recortar algo que ni me gustaba, a quien le iba yo a presentar semejante desfachatez…!!! Me imagino que a nadie, resulta que la pantalla está teniendo mejor resolución y capacidad de distribución que el impreso, eso lo creo porque no es nada fijo. No he impreso nada, aún, no sé si lo voy a hacer… aparte cuando me acordé que realmente existías ya era demasiado tarde. Ya existías, ya me acordé, ya todo había pasado. mira que lo que dices no es nada caballeroso, Yo no, nunca, jamás afirmaría semejante cosa. Al contrario, me iría de ese lugar ante la más mínima posibilidad. ésta es la clase de cosas que pasan si uno no estaba prestando atención. Crecen como olas, golpean una vez pero se sabe que no es la última; a veces no sabemos si el primero es el que más duele, o el segundo, o el tercero, o el…; pero de que siempre hay uno que duele más que todos los demás no hay duda. mira que yo ayer estaba pensando en lo que tengo que hacer, resulta… Bah, fue ayer. Hoy ya no importa. Hoy importa lo de hoy. Un caramelo?


¿fumas? si ¿mucho? no, no mucho. generalmente no más de uno a la vez. a veces ni yo te entiendo. ¿cómo es eso de, “ni yo”? ¿acaso quién te crees? ¿cómo? digo, si a veces ni yo me entiendo. ¿quién te crees tu para pensar que te sería más fácil? no estoy diciendo que sea más fácil, sino que creo que con el paso del tiempo me he convertido en la persona que mejor te entiende. él, del sueño, cayó. Ahora no sabe quien lo imaginó. No era verano, era un día de sol, pero el seguía metido en su cama, con un frío de páramo entre su cabello sobre la almohada en la cabecera de la cama; los pies por otra parte estaban en el otro extremo. No fui yo quien eligió el lugar, sólo las palabras, y las acciones se fueron dando conforme el tiempo iba pasando por delante y entre mis ojos, y el viento entre mis manos, y el aroma de dolor entre tus labios, que se fueron… que nunca estuvieron planeando nada, sólo hicieron, ¿qué hicieron? los secretos. a quien le importan, si son secretos, no me digas unos cuantos, guárdalos, porque si no, se vuelven oportunidades de una conversación, chances de una catástrofe..


D

R


R

A


G

Ó


Ó

N


0:00 G D A D

G D A D

|---------------------------------------| |-------7----------------7--------------| x2 |----------8----------------8---10------| |----0----------------0-----------------|

0:20 G D A D

w/ distortion.....preferably a Pro Co RAT

1:38 w/ distortion

a little faster...

G D A D

|----------------------------------------| |-------7----------------7---------------| x4 |----------8----------------8---10-------| |----0--------------0--0-----------------|

A |--5--5-----8-------------------5--5--D |--------------------------------------

|---------------------------------------| |-------7----------------7--------------| x6 |----------8----------------8---10------| |----0----------------0-----------------|

2:07

1:09 G D A D

|-----------------------------------------------| |---------7------------------------7------------| |------5-----8----3--3--5-------5-----8---x-----| |---0------------------------0------------------|

G D A D

|------------------------------------------------| |---------7------------------------7-------------| |------5-----8----3--3--5-------5-----8----------| |---0------------------------0-------------5-----|

1:18 G D A D

|---------------------------------------------| |---------7-----5------------------7----------| x2 |------5-----8-----7--0--5------5-----8-------| |---0------------------------0-------------5--|

1:28

h by Tool What’s coming through is alive. What’s holding up is a mirror. But what’s singing songs is a snake Looking to turn my piss to wine. They’re both totally void of hate, But killing me just the same. The snake behind me hisses What my damage could have been. My blood before me begs me Open up my heart again. And I feel this coming over like a storm again. Considerately.

|-------------------------------------|-------7----------------7------------|----------8----------------8---10----|----0----------------0---------------Distortion off

0:39 Distortion off... G D A D

|----------------------| |---------7------------| x4 |------5-----8---------| |---0-------------5----|

G D A D

|--------------5-----5h7p5------------|--------7--------7--------7----------7 |--5--5-----8-------------------5--5--|--------------------------------------

G D A D

|--------------5-----5h7p5------------|--------7--------7--------7----------7 |--5--5-----8----------------------5--|-------------------------------0------

2:17 G D A D

|-------------------------------------|---------7-----5------------------7--|------5-----8-----7--0--5------5-----8 |---0------------------------0---------

2:27

x7 G |----------------------|---------------

Venomous voice, tempts me, Drains me, bleeds me, Leaves me cracked and empty. Drags me down like some sweet gravity. The snake behind me hisses What my damage could have been. My blood before me begs me Open up my heart again. And I feel this coming over like a storm again. And I feel this coming over like a storm again now. I am too connected to you To slip away, fade away. Days away I still feel you Touching me, changing me,


D |---------7------------|---------7------| A |------5-----8---------|------5---------| D |---0------------5-----|---0--------3b--| 2:46 w/ Distortion verified live….he DOES follow guitar

--| --| x2 --| --|

---8--------------5--| ---------------------|

------5-----5p4---| 7--------7------5-| ---8--------------| ------------------|

------------| 7-----------| ---8--------| ------5-----|

--------| --------| x2 8-------| ----5---|

--|

G D A D

|------------------------| |------------------------| x3 |------------------------| |----0---7---3---5-------|

G D A D

|------------------------| |------------------------| |------------------------| |----0---7---3---5-/-10--|

G D A D

|-------------------------------------------------| |-------------------------------------------------| |-------------------------------------------------| |----0---7---3---5-------0---7---3---5----x-10----|

3:13 G D A D

3:18

|-----------------|---------------------| |-------7---------|------7--------------| |----------8------|---------8---10------| |----0------------|---0-----------------| Distortion Off

3:28 G D A D

|---------------------------------------------------------| |---------------------------------------------------------| x2 |------------------------------------------------------8--| |--8--8--8--8-7-5--5--5--5-/--10--10--10--10-9-8--8--8----|

3:47 G |---------------------------------------------------------|

Considerately killing me. Without the skin here, Beneath the storm. Under these tears now, The walls came down.

Recalling all of the times I have died and will die. It’s all right. (I don’t mind)

And as the snake is drowned And as I look in his eyes, My fear begins to fade Recalling all of those times. I could have cried then. I should have cried then.

I am too connected to you To slip away, fade away. Days away I still feel you Touching me, changing me,

And as the walls come down And as I look in your eyes My fear begins to fade

Considerately killing me. Considerately killing me. Considerately killing me. Considerately killing me. Considerately killing me.


Experimentaciones & Divagaciones. NĂşmero 2. Abril de 2010.

zursoif@gmail.com


Experimentaciones y Divagaciones Numero2