Page 1

주 2회 화/토 www.FindAllUSA.com ●

발행인 이명석

33-70 Prince St. #601, Flushing, NY 11354

T. 718-359-0700 / 718-353-3805

F. 718-353-2881

E. findallny@gmail.com 4월 3일 (화) TUE.

평통사무처, 반발위원 제명? 뉴욕평통 양호회장 임명문제…일파만파 평통사무처의 독단…한인사회가 우습다?

지난 28일 열린 긴급 임원회의에 36명 중 24명이 불참했다.(사진 뉴욕한국일보) 민주평통 뉴욕협의회(뉴욕평통)가 신임 양호 회장의 임명 문제가 갈수 록 파문이 커지고 있다.

뉴욕평통 일부 자문위원들이 중심 이 돼 양호 회장 선임에 대해 집단 반 발하고 나서자 한국의 평통사무처가

해당 자문위원들을 해촉, 즉 제명하 겠다고 밝힘으로서 ‘불에다 기름을 부은 것’처럼 사태가 더욱 심각해 지 [A6면에 계속]

TU 'MVTIJOH /:


A2

Tuesday, April 03, 2018

www.FindAllNY.com


www.FindAllNY.com

2018년 4월 03일 (화)

A3


A4

Tuesday, April 03, 2018

www.FindAllNY.com


www.FindAllNY.com

2018년 4월 03일 (화)

A5


A6

Tuesday, April 03, 2018

www.FindAllNY.com

평통사무처, 반발 뉴욕위원들 제명? "양호씨, 평통위원 된지 불과 6개월...적폐재현" 반발위원들, "협박하지 말라…부조리 맞설 것" 고 있는 것이다. 뉴욕의 한인언론들은 신 문,TV,라디오 할 것 없이 이번 양호씨의 평통회장 임명사태 를 크게 다루고 있다. 그 배경 은 우선 한인언론들 조차 “200 명 가까운 뉴욕평통위원들은

나름 한인사회를 대표한다는 인사들로 구성되어 있는데, 한 국의 평통 사무처 실무진이 양 호 회장의 임명문제에 불만을 표시한 의원들을 무조건 제명 부터 하겠다는 것 자체가 한인 사회의 자존심을 건드린 것”이

라고 판단했기 때문이다. 평통 사무처가 한인사회를 대표하는 평통위원들을 극히 폄하하고, 우습게 본 것 자체 에 분노하고 있는 가운데, 대 다수 평통위원들은 이번 평통 사무처의 처사에 강하게 반발 할 갓으로 예상되고 있다. 지난 2월1일 박동주 당시 뉴 욕평통 회장이 일신상의 이유 로 사임한 후 수석부회장이었 던 황미광씨가 회장 직무대행 을 맡아오며, 한국도 함께 방 문하는 등 두달간 무리없이 뉴 욕평통을 이끌어왔는데, 드닷 없이 평통위원이 된지 6개월 밖에 안된 양호위원이 어떻게 막중한 뉴욕 평통회장이 될수 있느냐는 것이 대다수 위원들 의 의견이다. 대다수의 뉴욕평통위원들은 “양호씨가 뉴욕한인사회에서 인지도가 거의 없고, 변호사인

아내의 사무실 일을 돕는 사무 장 일을 하고 있는 가운데, 위 원들 사이에서 전혀 검정된 인 물이 아님에도 어떻게 한국의 평통 사무처가 양호씨를 뉴욕 회장에 임명했는지 이해할 수 없다고 말한다. 뉴욕의 많은 평통위원들은 “ 이번 낙하산 인선이 오히려 적 폐 청산을 내세우는 문재인 정 부에 큰 부담이 될 것””이라고 강하게 성토하며 집단행동에 나설 준비를 하고 있다. 한편 한국의 평통 사무처는 여전히 “양호씨의 회장 임명 에 반발하는 뉴욕위원들는 제 명시키겠다”며 강력히 대응하 고 있어 앞으로의 사태는 한치 앞을 내다보기 힘든 상태로 전 해졌다. 한 평통위원은 “전두환 정권 때도 이런 식으로 제명 운운 하지 않는데...이건 뉴욕한인 사회와 뉴욕평통을 우롱하는 적폐의 극치”라고 강하게 성 토했다. 가? 어떤 한 사람의 뉴욕평통 이 아님을 분명히 밝혀야 한 다. 잘못된 관행을 바로 잡아 가자고 하는 위원을 ‘해촉’이

라 는 말로 ‘겁박’주는 사무처 는 오만불손 이다”고 목소리 를 높였다. 그는 “한국 평통사 무처가 무슨 일을 해도 ‘지당 하신 말씀입니다’라고 부복 구 걸해야 하는가~!? 어마어마한 고민 속에 나온 인사가 결국 분란과 불신을 낳았다면 자신 들의 적폐를 반성하고 후회하 는 모습을 보여줘야 마땅하다. 우리 같은 민초들을 ‘졸’로 보 는 시각과 오만 함이 큰 문제 다”면서, 뉴욕 평통위원들 모 두가 본국 사무처의 반민주적 이고, 시 대정신에 어긋난 독 선적인 회장 임명에 대한 반 대서명에 적극 동참해 줄 것을 강력히 호소하고 나섰다. 한편 양호 회장 임명자는 두 달간 회장 대행을 맡은 황미 광 수석부회장과 20여년간 뉴 욕에서 잘 알고 지내는 사이임 에도 이번 일로 인해 극히 불 편한 관계가 된 것으로 전해 졌다. 한 평통위원은 “사무처 인사 권자가 누군지는 모르지만 양 호씨가 사무처 실권자와 가깝 다는 한가지 이유로 이번에 뉴 욕평통회장에 임명된 것이 후

에 밝혀진다면 문재인 대통령 에까지 불똥이 튈수 있다”고 경고하고 있다. 회장행을 맡았던 황미광 수 석부회장은 노무현 정권 때 공 로상을 받았고, 18년 동안 평 통위원으로활동해 왔으며, 박 사 학위를 소지한 뉴욕한인여 성을 대표하는 엘리트로 잘 알 려져 있다. 또 현재 뉴욕문인 협회 회장을 맡고 있는 가운데 외조부는 독립 운동가 출신으 로 전해졌다. 이로 인해 회장 대행을 거쳐 당연히 회장에 임명될 것으로 예상했던 대다수 평통위원들 은 “양호씨의 뉴욕회장 임명에 직접 관여한 평통 사무처 간부 가 누구인지를 조사하고 있으 며, 청와대와 한국 평통 고위 인사들과 접촉을 서두르고 있 는 것으로 전해졌다. 한편 평통 사무처의 전난경 위원활동지원국장은 "사무처 로서는 이번 회장 임명과 관련 해 내용상·절차상의 어떤 하 자도 없었다는 점을 분명히 한 다"는 권위적 내용의 서한을 뉴욕위원들에게 보내 더욱 물 의를 빚고 있다.


www.FindAllNY.com

2018년 4월 03일 (화)

A7


A8

Tuesday, April 03, 2018

www.FindAllNY.com

H-1B 접수시작됐다…'작은 실수도 접수 거부'

퀸즈 서니사이드 한인노인 '무연고 사망'

4월 6일 마감 예상…"이민국 작은 실수도 관용없다"

뉴욕장로교회, "연고자 없어 장례 못치러"

H-1B전문직 취업비자 신청 서가 4월 2일부터 접수가 시작 돼 오는 4월 6일 금요일에 마감 될 것으로 보인다 유례없이 까다로워진 H-1B 비자 취득에서 첫 관문인 페 티션 접수에서는 작은 실수라

도 관용없이 접수를 거부하겠 다고 밝혀 더욱 주의가 요구되 고 있다 이번에 사전 접수하는 H-1B 비자는 2019회계연도 분으로 학사용 6만 5000개와 미국석사 용 2만개 등 모두 8만 5000개를 발급해 오는 10월 1일부터 사용 할 수 있게 된다. 아직까지 컴퓨터 추첨이 바뀌 지 않아 올해도 신청서 접수 마 감후 당첨자를 가리고 정밀심

사를 실시 해 승인여부를 판정 하게 된다 트럼프 행정부가 유례없이 H-1B 비자 발급을 까다롭게 하고 있어 첫관문인 페티션접 수부터 정확하 게 서류를 준비 하는 동시에 닷새안에 이민국 에 도착되도록 신속하게 접수 해야 한다 연방이민국은 작은 실수라도 어떠한 관용없이 접수를 거부 할 것이라고 재차 밝혔다.

뉴욕장로교회 관계자는 지난 3월 27일 퀸즈 서 니사이드에 거주하던 변승재(80·사진)씨가 퀸 즈 엘름허스트 병원에서 사망했으나 연고자가 없어 장례를 치르지 못하고 있다고 밝혔다. 고 인의 가족들이 오래 전 한국으로 귀국했으며, 변 노인 혼자서 룸메이트와 생활해 온 것으로 나타 났다. 뉴욕시에서는 가족이 없으면 장례를 치를 수 없 어 무연고 묘지에 묻히게 된다. 연락처: 뉴욕장로교회 718-706-0100 또는 917679-9389


www.FindAllNY.com

2018년 4월 03일 (화)

"'뒤늦은 후회' 불러줘 고맙습니다" 김정은, 가수 최진희에 악수하며 존대말로 감사 가수 최진희(61)씨가 "김정 은 위원장이 내려와 나와 악수 를 했는데 '그 노래를 불러줘서 고맙습니다'라고 말했다"고 밝 혔다. 최씨는 평양 동평양 대극장에 서 펼쳐진 평양 공연에서 김정 일 전 국방위원장의 애창곡으 로 알려진 '사랑의 미로'와 함 께 남매듀오 '현이와 덕이'의 '

뒤늦은 후회'를 노래했다. 최씨는 "준비하는 측에서 내 노래가 아닌, ‘뒤늦은 후회’를 부르라고 했다"며 "(김 위원장 이 고맙다고 말하자) 왜 나에게 뒤늦은 후회를 부르라고 했는 지 알겠더라"라고 했다. 최씨는 남측예술단 중 북한을 가장 많이 방문한 가수로, 이번 이 4번째 방북 공연이다.

A9


A10

Tuesday, April 03, 2018

www.FindAllNY.com


www.FindAllNY.com

2018년 4월 03일 (화)

A11


A12

Tuesday, April 03, 2018

www.FindAllNY.com


www.FindAllNY.com

2018년 4월 03일 (화)

A13

몸의 어떤 아픈 곳이라도 산소와 영양분만 충분히 공급되면 어떠한 통증이나 질병도 나을 수 있습니다.“옛 어른들은 이를 기혈의 순행이라 부릅니다.”

헬리코박터파일로이 요즈음위내시경이나대장내시경을 했습니다. 그런데가슴이꽉막혀서답 받는분들이많습니다. 의료보험도지 답한것이약을복용해도없어지지를 원해주고또혹모를염증이나종양심 않고평소에도식은땀이자주나걱정 지어암까지예방할수있다고하니까 을했는데땀이전혀나지않는다고합 금상첨화로들립니다. 미리발견하면 니다. 그래서제가궁금증이생겨헬리 예방도되고치료도빨리할수있다는 코박터균의항생제부작용을검사했 장점이있습니다. 그런데개인적으로 더니감기가잘걸린다고나옵니다. 그 의문이듭니다. 종양을잘라냈다고가 러니까이분은잘한다고감기예방주 정합니다. 그렇다고종양이자란원인 사도맞고위내시경도하고항생제도 ༙᮹ᨕਅᦥ⥩Ŕᯕ௝ࠥᔑᗭ᪡ᩢ᧲ᇥอ∊ᇥ⯩Ŗɪࡹ໕ᨕਁ⦽☖᷾ᯕӹ 이제거되었을까요? 그후식생활과운 복용했는데감기를아주심하게앓았 ḩᄲࠥӹᮥᙹᯩ᜖‫ⲳ݅ܩ‬᩼ᨕෙॅᮡᯕෝʑ⩩᮹ᙽ⧪ᯕ௝ᇡ෦‫Ⲵ݅ܩ‬ 동이큰도움이되겠지만제대로지키 습니다. 무엇이정말좋은지해답이없 기는어렵습니다. 또헬리코박터파일 습니다. 핼리코박터약을다복용한후 로이균이발견되면항생제를복용해 다시위내시경검사를했더니균이다 야합니다. 위암을유발하는균이므로 안죽었다고다시복용해야한다고했 없애야한다는것이양방이론으로압 지만너무끔찍한생각이들어약복용 니다. 실제로위암이걸린다고하니까 을포기했다고합니다.저는아주작은 겁이나서항생제를복용을했답니다. 양의마취제를사용해도인체에좋지 한번이라도약복용을거르면안되니 않은영향을미칠수있다는생각때문 꼭매일복용을하는데위가쓰리고쓴 입니다. 또이런균이몸에좋은영향을 물이목구멍으로올라와도위암을예 줄수있다고도봅니다. 그냥얼굴보고 방한다는말에계속했다고합니다. 그 혀를보고맥을잡고환자의증상을들 리고남편과뽀뽀도안했답니다. 그런 으면대부분해답이나오게마련입니 데감기가들렸습니다. 감기예방주사 다. 한약과침치료로거의모든증상이 도작년에맞았답니다. 감기가걸렸으 사라졌습니다. 니폐렴이걱정되니또항생제를복용

ᅙ⦽᮹ᬱᨱᕽ۵ᱢᮡᙹ᮹⋉ᮥ _} ᔍᬊ⦹۵äᯕ޵⬉ŝaᳬ݅Łၠ᜖‫݅ܩ‬ ⋉ᮥ‫״‬۵ᷪ᜽⬉ŝaӹ┡Ԋ‫ⲳ݅ܩ‬ᅕ᧞ŝ⊹ഭ⦽᧞ᮥᱶ⪶⦽ḥ݉ᮝಽ᳑ᱽⲴ


A14

Tuesday, April 03, 2018

www.FindAllNY.com

박근혜 전 대통령, 글 쓰는 중…

만화책도 즐겨봐…"수감 내내 한결같음 모습"

구속 수감 1년을 넘긴 박근혜 전 대통령(66)이 6일 열리는 국 정농단 사건 1심 선고 재판에 불참할 예정이다. 박 전 대통령이 이 같은 결심 을 한 것은 재판부가 앞서 공

범 최순실(62·구속 기소)에게 징역 20년을 선고해 중형 선고 가 확실시된 상황에서 법정에 나설 이유가 없다고 판단한 때 문으로 보인다. 교정 당국에 따 르면 박 전 대통령은 1심 선고

를 앞두고 평소처럼 담담한 모 습을 보이고 있다. 법무부 관계 자는 “수감 이후 1년 내내 한결 같은 모습이어서 담당 교도관 들도 놀랄 지경”이라고 말했다. 운동시간을 제외하고는 10.08m² 크기의 독방에만 머물 고 있고, 일과 시간 대부분을 독 서에 쏟고 있다. 최근에는 허영 만 작가의 ‘꼴’, 이두호 작가의 ‘객주’, 방학기 작가의 ‘바람의 파이터’ 등 만화책도 즐겨 본 다고 한다. 법조계 관계자는 “ 박 전 대통령이 뭔가 글을 쓰고 있다”며, 책을 출판할 것이라고 말했다.


www.FindAllNY.com

2018년 4월 03일 (화)

"박근혜 즉각 석방해야"…보수단체 '무죄' 서명 75만 명단 제출 박근혜 전 대통령(66)의 1심 선고(6일)가 나흘 앞으로 다 가온 가운데 보수단체들이 “ 박 전 대통령을 즉각 석방하 라”며 무죄를 주장했다. ‘1천만인무죄석방본부’는 박 전 대통령의 무죄규명과 석방 을 위해 총 3차에 걸쳐 총 75

만여명이 서명한 명단을 제출 했다고 강조했다. 본부측은 “돈 한푼 받지 않 은 깨끗한 대통령은 무죄추정 의 원칙과 증거재판주의, 불 구속 수사의 원칙이라는 대한 민국 헌법과 법률에서 철저히 배제됐다”고 주장했다.

이어 “특검과 검찰은 국정운 영 과정에서 발생한 정치적· 행정적 현상을 뇌물죄로 몰아 갔다”며 “재판부는 더 이상의 정치보복 재판을 중단하라” 고 밝혔다.

A15


A16

Tuesday, April 03, 2018

www.FindAllNY.com

"손해보는 '적자 인생'이 성공한 삶" 책 낸 오종남 전 통계청장, "은퇴 후의 삶' 중요"

오종남(사진.66) 전 통계청장 이 최근 은퇴 이후 노후 생활에 관한 에세이 '당신은 행복하십 니까'를 펴냈다. 경제기획원· 청와대 등에서 경제 공무원으 로 30여 년 일하다 퇴직한 그는 법률회사 고문으로 있으면서 ' 행복한 제2의 삶' 을 실천하고 있다. 2006년 은퇴 후 그가 무보수 명예직으로 봉사한 곳만 10여 곳이다. 그는 "최근 행복을 주제로 강 연해 달라는 부탁을 많이 받는 데, 그만큼 사람들이 행복하지

않다는 방증인 것 같다"고 했 다. "'행복 지수'는 '자기가 바라는 것 가운데 얼마만큼 채웠는가 에 대한 비율'입니다. 흔히 많이 성취하면 행복하다고 생각하지 만 대개는 바라는 게 적을수록 행복 지수가 높아집니다. 그래 서 주례사에서 신랑·신부에게 '서로 상대방에 대한 기대 수준 을 반으로 낮추라'고 당부하곤 합니다." 요즘 오 전 청장이 관심을 쏟 는 것은 은퇴 이후 삶이다. 국 가도 자식도 노후 보장을 해주

지 않는 시대에, 환갑 이후 30 년을 잘 사는 게 중요하다는 이 유에서다. 그는 "노후 생활의 지혜는 국 어와 산수 시간에 배운 '주제 파 악'과 '분수'를 지키는 것"이라 며 "성공적인 인생을 살려면 손 해 보는 삶, 즉 '적자 인생'을 살 아야 한다"고 강조했다. "궂은 일에 앞장서고 상을 줄 때 뒷전에 서면, 당장은 손해를 볼지 몰라도 결국 복을 받고 또 만나고 싶은 사람이 됩니다."


www.FindAllNY.com

2018년 4월 03일 (화)

A17


A18

Tuesday, April 03, 2018

www.FindAllNY.com

게시판

BULLETIN BOARD 지역 사회 동정 | 사회 보장 서비스 | 건강 보험 | 일반 건강 | 강좌/상담/세미나 / 기독교 관련 동호회 9/19/17---------------------------------------------------------------------------------------------------------------------------------------------------------------------------------------------------------------------------------------------------------------------------------------6/30/18

4/29/17----------------------------------------------------------------------------------------------------------------------------------------------------------------------------------------------------------------------------------------------------------------------------------사-

톱 연주 수강생 모집 유투브에서 "뉴욕 천선생"으로 검색해서 연주, 강의모습 감상할 수 있음. 톱 연주:나무를 써는 톱을 악기로 사용 천리밍 선생님 약력: 수십회 중국, 미국 오케스트라단과 협주, 실내, 야외 공연 다수, 방송 출연. 현재 뉴욕 맨해튼, 퀸즈 초, 중, 고교 학교 출강 중. 개인 교습 및 그룹, 단체 수강생 환영. 많은 제자들이 대학 진학시 악기 연주 특기로 혜택을 받 았음. 톱 연주학교(Musical Saw) (영어/한국어) ☎ 646-982-2761 (중국어) ☎ 917-783-4485 chensawplaying@gmail.com

한인 노숙인 무료쉘터 나눔의 집 남·여 신분에 관계없이 재정문제로 인해 노숙할 수밖에 없는 분들은 연락을 주시 면 상담후 의·식·주 도움을 드립니다. 식사 준비 자원봉사 하실분 연락주세요. nanoomhouse@gmail.com ☎718-683-8884

미동부 흑백사진 연구회 칼라사진에 싱싱한 현대인들 흑백사진 의 대가 안셀 Ansel 아담 Adamth 회상 해 봅니다 현상 (Developing) 인화 (print} 확대 (Enlargement) 을 연구하먄서 ' 귀하를 흑백사진의 세계로 초대합니다 ☎718-813-2228 윤인웅 ☎516-943-1948 김근영 3/24/18---------------------------------------------------------------------------------------------------------------------------------------------------------------------------------------------------------------------------------------------------------------------------------------4/21/18

청일의 한달내 치료 보장 (12번의 침치료와 한달치 한약) 1. 아토 피 2. 여드름 3. 고혈압 (위수치 150이상 은 20% 이상, 150이하는 120 또는 그 이 하로 내립니다) 한달내에 치료가 안 되 면 두번째달은 무료로 치료해 드립니다. 그래도 치료가 안 되면 지불하신 금액을 돌려 드립니다. ☎718-228-1972 ●

5/1/14--------------------------------------------------------------------------------------------------------------------------------------------------------------------------------------------------------------------------------------------------------------------june/3------------------1/15

임플란트 전문 A 플러스 치과 오피스 이전 기념 이벤트 (7/31/16까지) 무료: 엑스레이 포함 검진($60불 상당) $200할인 : 치아 미백 $400 상당 $100할인 : $1000불 예상 치료시 예약 필수 *쿠폰 지참요(신문 광고 참조) ☎718-762-1700(164-10 노던) ●

2018 메디케어/오바마케어 가입신청 건강보험 전문 '조은 Agency'에서 도와 드립니다. <메디케어>65세 이상 1. 신규 가입(53년생) 및 플랜 변경 2.월보험료 $0, 주치의 $0 Copay, 추천 서 불필요 3. 무료 운동 회원권, 침술, 치과, 안경 및 OTC카드 혜택 *현재 보유하신 플랜변경 상담 *처방약 보조(Extra Help) 및 보험료면 제(MSP) 신청 <오바마케어>65세 미만 1. Essential 플랜: 소득에 따라 월보험료 $20이하, $0 Deductible(연중 수시 가입 가능) 2. 메디케이드 및 어린이 건강보험 신청 (ChildHealth Plus) *건강보험 ‘특별가입(SEP)’ 조건에 해 당여부 문의 바랍니다. <사업체 건강보험> 2인 이상 연중 수시 가입/변경 1. $0 Deductible GOLD plan, 주치의 추 천서 불필요 2. Owner만도 가입 가능 *‘보험료 절약’ 문의 바랍니다 162-23 Depot Rd. St #202 Flushing, NY 11358 <조은보험> ☎917-750-5424(C) ☎718-886-5792(O) ●

05/07-------------------------------------------NYF----------------------------------------------------------------------------------------------------------------------------------------------------------------------------------------------------------------------------------------------o

9/24/16--------------------------------------------YS-----------------------------------------------------------------------------------------------------------------------------------------------------------------------------------------------------------------------------------------4/7/18

명윤희의 행복한 풍선 마을 풍선 이벤트:돌잔치 결혼식 프로포즈 생 일파티 개업식 풍선교육:취미반 비지니스반 (초급,중급,고급) 선교 봉사반 ☎ 201-675-7955 ●

08/31/12-------------------------------------------------------------------------------------------------------------------------------------------------------------------------------------------------------------------------------------------------------------YS---------------------------O

제일기원 이전공고 유니온에 있던 제일기원이 새로운장소 (151-28 34Ave)로 이전하였습니다. 어린이 바둑, 컴퓨터 바둑반이 있습니다. ☎718-886-5040 ●

무료 미국 시민권 강의 (100% 합격) 10년 노하우 강사가 무료 강의 합니다. 플러싱: 갈릴리교회 33-37 146th St. Flushing, NY 11354 뉴저지: 뉴저지영어훈련원 705 Grand Ave. #208, Ridgefield, NJ 07657 시민권신청 및 영주권 갱신 업무와 시민 권 인터뷰시 한국어 통역도 해드립니다. usnjpp17@ail.com ☎201-518-6829 ●

곽명순 치과 틀니전문 치과 (무료 상당환영) 틀니당일 수리 1시간내 에 가능 30년 경력 기공사와 의사 진료 과목: 임플란트, 일반치과, 신경치료, 교 정, 사랑니 발치 142-10B #21 루즈벨트 7번종점3분 ☎ 718-359-2519

꽃꽂이 수강 모집 (NY/NJ) 꽃집창업반 / 플로리스트 화훼장식기능 사반 / 어린이플로리스트반 / 전문웨딩 장식 및 지도반 / 성전꽃꽂이반 플로리 스트과정 꽃꽂이- 초급에서 연구사범까지 실내 조 경마스터과정 / 동양식과 웨스턴 유러피 안까지 이론과 실기를 겸한 개인지도 (사단법인)한국꽃문화진흥협회 영심꽃예술중앙회 회장 김영심 ☎ 718-506-4352 ●

04/22/14-------------------------NY----------------------------------------------------------------------------------------------------------------------------------------------------------------------------------------------------------------------------------------------------------------

05/07------------------------------------------NYF------------------------------------------------------------------------------------------------------------------------------------------------------------------------------------------------------------------------------------------------o

-------------------------------------------------------------------------------------------------------------------------------------------------------------------------------------------------------------------------------------------------------------------------------------------------

5/20/17------------------------------------------------------------------------------------------------------------------------------------------------------------------------------------------------------------------------------------------------------------------------------------------CE

영어 북클럽 매월 모임 두 편의 영어소설를 출간한 작가 최복림 씨가 이끄는 영어 북클럽. 매달 퀸즈 플러 싱에서 열립니다. 시간:첫번째 or 두번째 수요일 오후 6시 장소 : 46-20 , Flushing. 그 달의 영어소설을 읽고 한국어로 토론 합니다. ☎917-992-3732 ●

-------------------------------------------------------------------------------------------------------------------------------------------------------------------------------------------------------------------------------------------------------------------------------------------------

송뮤직 스튜디오 기타, 드럼, 실천 속성 전문/기타(일렉, 어쿠스틱,베이스)드럼 다양한 연령층 지 도, 풍부한 경험, 완전 초보자 3개월 속 성지도/고등학교 콘서트 밴드 특별지 도 /교회찬양단 특별지도/60세 이상 시 니어 걱정말고 전화주세요./주 7일 오픈 9am-10pm/플러싱 노던 150St ☎718-679-5002 ☎718-427-3323 ●

12/10/16--------------------------------------------------------------------------------------------------------------------------------------------------------------------------------------------------------------------------------------------------------------------------------------1/09/16

평생 공짜 무료 보험, 세금환급 반가운 소식.영주권 없는 서류 미비자나 여권 연장 안되는 분에게도 평생 무료 종 합 병원 카드혜택과 사진있는 신분용 은 행카드, 절호의 기회-65세 이상 반액 지 하철 카드, 영주권 있는 분, 무료 종합 병 원카드는 물론이고 생활보조비 메디케 이드, 푸드 스탬프, 시민권 신청, 시영 아 파트 (영주권 5년, 65세이상 SSI 수혜가 능)136-80 41Ave.2fl. 플러싱 NY 11355 천주교명 요한 김 ☎646-339-6091 자비원 장기근무(후속 밝은마음회장역임) ☎917-554-8446 뉴욕한인상조회 후원 ☎718-762-3515 ●

2/25/177---------------------------------------------------------------------------------------------------------------------------------------------------------------------------------------------------------------------------------------------------------------------------------------5/1

무료카페 & 문화교실 오픈 1. 정기적 다민족 공동체모임, 주일 오 전 영어 주일 학교 연령별 모임: 10AM11AM 주일오전 대 예배 (영어 예배): 11:15 AM-12:30 PM -한국어, 중국어, 스페인어 번역을 매주일 제공함 2. 2016 년 하반기 무료 성인 다민족 언어 학습 교 실- 무료 커피와 베이글 제공/ 교재비 별 도 개인 부담 - 수강 기간: 9월 13일 (화)-12월 16일 (금)까지 3개월/수시, 등록 가능 화요일 수업,원어민 영어 초/중급 회화 : 10:30 AM - 2:30 PM (원어민 지도) 기초영어 문법&회화: 10:30 PM -12:00 PM 일 본어 반:기초 회화 1:00-2:00 PM(학생 모집 중 등록 요함) 주소: 45-11 149th St. Flushing, NY ☎ 516-749-1744 (이재숙선교사) ●

04/22/14-------------------------NY----------------------------------------------------------------------------------------------------------------------------------------------------------------------------------------------------------------------------------------------------------05/21/13

주님의 신탁 선교회 1. 무숙인 무료 숙식 제공 2. 저소득층 직 업제공 (55세 이상) -연방정부 봉급 받 습니다. 3. 합법적 신분이신 분만 가능 ☎347-803-0375 ●

5/20/17----------------------------------------------------------------------------------------------------------------------------------------------\------------------------------------------------------------------------------------------------------------------------------CE

51

‫޹י‬a

Ⱂᩍ⧪ႊྙᯱၰʑ┡እᯱ዁ෙ᜽ᯝԕ໕⨩≉ा Ⱂ⦽ǎ໕⨩᷾ᗭḡᯱ⦥ʑ᜽⨹ᮝಽ໕⨩≉ा Ⱂ⦽ᩢ⦥ʑ᜽⨹ๅᯝᝅ᜽ Ⱂ₉పǎᨦྕ‫ݚ‬ᯝ⃹ญ *5/ ᖙɩᅕŁ ჩ⪙ᝁℎ Ⱂᗭᖽჩ⪙ᝁℎ እᯱᩑᰆᝁℎ Ⱂᗭ᧲Ʊᮂᝅ᜽ ⰒჭᱱƱᮂᅕ⨹ഭ⧁ᯙჭᱱᱱqᱱ

⦺ᬱ



໕⨩≉ा


www.FindAllNY.com

2018년 4월 03일 (화)

A19

랜섬웨어 공격으로 인구 1백만 애틀란타시 5일간 마비 공무원 8천여명, 잉크·펜으로 업무…CNN "근무환경 수십년 전으로

조지아주 애틀랜타시 정부의 컴퓨터 네트워크가 ‘랜섬웨어’의 공격을 받아 최근 5일간 온라인 업무가 마비되는 사태가 발생했다. 애틀랜타시(사진) 에는 인구 1백만명 가까이 살고, 인근 메트로폴리탄 지역을 합치면 총 6백만

명이 거주하고 있다. 시 정부의 온라인 행정이 중단되면 서 주민들은 그동안 온라인으로 해결 해왔던 민원 업무를 직접 시청이나 법 원을 찾아가 해결해야 했다. 사회 전반 에 구축된 컴퓨터 시스템이 해커 집단

에 뚫리면서 대도시 행정 전반이 마비 된 것이다. 랜섬웨어는 해커들이 컴퓨 터 시스템을 악성코드로 감염시켜 주 요 데이터에 대한 접근을 막고, 일종의 '몸값'을 요구하는 악성 소프트웨어다. 8000명의 애틀랜타시 공무원들은 랜

섬웨어에 감염된 후 5일간 컴퓨터를 모두 끄고, 잉크와 펜으로 업무를 봐 야 했다"고 보도했다. CNN방송도 "근 무 환경이 수십 년 전으로 돌아갔다" 고 전했다. 5일 동안 시민들은 교통위반 벌금이 나 수도세를 온라인으로 낼 수 없고, 어떤 민원도 온라인으로 올릴 수 없었 다. 상수도 신청이나 수도계량기 검침 등의 온라인 업무도 모두 중단됐다. 법

미 연방수사국(FBI)과 델·시스코 산하 보안업체들의 조사 결과, 이번 공 격은 '샘샘'이란 집단이 저질렀다. '샘 샘'은 랜섬 요구에 쉽게 응할 만한 타 깃을 주도면밀하게 선정해서 주요 데 이터를 잠그고는 통상 5만달러의 비트 코인 지불을 요구하는 것으로 유명하 다고 한다. 즉, 미국 내 기업·대학· 병원들은 자체 복구하느라 수일·수 주를 보내느니 5만달러의 몸값을 내는

원도 영장을 일일이 손으로 써서 발부 해야 했다. 그러나 이번 공격을 저지른 해커 집 단은 응급 상황 신고 전화인 '911'과 하 수 처리시설 네트워크는 건드리지 않 았다. 뉴욕타임스는 이번 공격이 "미 국 내 주요 도시를 겨냥한, 가장 지속 적이고 파장이 큰 사이버 공격 중 하 나"로써, 작년 일부 도시에 대한 공격 보다 규모가 한층 커졌다고 보도했다. 작년 4월 텍사스주 댈러스시 전역에선 156개 태풍 경보 사이렌이 사이버공격 을 받아, 모두 한밤중에 수십 번씩 울 린 적이 있었다.

것이 '경제적'이라고 판단한다는 것이 다. '샘샘'은 이런 방식으로 올해에만 30개 기관을 공격해 약 100만달러를 뜯 어냈다고, 뉴욕타임스는 보도했다. 사이버 보안 전문가들은 미 언론에 " 랜섬 요구 쪽지를 쓴 서툰 영어 문장을 볼 때, 해커들이 영어 원어민은 아니라 고 추정될 뿐, 국적이나 조직에 대해 선 확실한 것이 전혀 없다"고 말했다. 2016년 한 해 전 세계적으로 10억달러 의 랜섬웨어 피해액이 발생했다. 한편 애틀랜타 시가 최근 컴퓨터 네 트워크의 복구를 발표하면서도, 랜섬 을 지불했는지 여부는 답하지 않았다.


A20

Tuesday, April 03, 2018

www.FindAllNY.com

만남의 광장 [주찬양 선교회]에서 양로원 및 너싱홈의 노인환자를 위한 찬양 사역에 봉사 하실 분을 찾습니다. 정목사☎917-415-6995 3월30일 /18년 플러싱 아침 11시 후로리다 올랜도 차로 가실분 구합 니다. 1 - 4 분 원함 치종은 도요다 씨에나 미 니벤 7인승 ☎718-241-9353 03/24/18-----------------------------------------------------------------------------------------------------------------------------------------------------------------------------------------------------------------------------------------------------------------------------------04/21/18

[늘푸른 산악회] 꽃향기 가득한 봄과 함 께 기분좋은 등산을 하십시요. 베이사이 드지역 픽업해드립니다. 화요일 오전 9시 노던 한양마켓 주차장에서 출발 (Mr kim) ☎ 917-650-3234 9/15/15--------------------------------------------------------------------------------------------------------------------------------------------------------------------------------------------------------------------------------------------------------------------------------------03/14/16

무료카페 & 문화교실 오픈 1. 정기적 다민족 공동체모임, 주일 오 전 영어 주일 학교 연령별 모임: 10AM11AM 주일오전 대예배 (영어 예배): 11:15 AM12:30 PM -한국어, 중국어,스페인어를 매주일 제공함 2. 2016년 하반기 무료 성인 다민족 언어 학습 교실- 무료 커피와 베이글 제공/ 교 재비 별도 개인 부담 수강 기간: 9월 13일 (화)-12월 16일(금) 까지 3개월/수시, 등록 가능 화요일 수업,원어민 영어 초/중급 회화 : 10:30 AM - 2:30 PM (원어민 지도) 기초영어 문법&회화: 10:30 PM -12:00 PM 일본어 반:기초 회화 1:00-2:00 PM(학생 모집 중 등록 요함) 주소: 45-11 149th St. Flushing, NY 이재숙선교사 ☎516-749-1744 04/22/14-------------------------NY----------------------------------------------------------------------------------------------------------------------------------------------------------------------------------------------------------------------------------------------------------- ----

---

-------------------------------------------------------------------------------------------------------------------------------------------------------------------------------------------------------------------------------------------------------------------------------------------------

[대왕국교敎] 50번째 하와이 완 130개 ies 섬마을s들로 Iam 뿐 Lovely 뿐과 됨 함께뿐과 이삿짐들을 뉴욕에서 픽해서 Lovely 내가 이미 조지아에서 걸어온 현 찰 현금 돈 Cash를 지참되셔서, 뉴욕 앰 파이여 State Number Plate가 부착된 14 cars로 Iam lovely 뉴 my 하와이 호놀룰 루로 24행(Lovely New My 칼라 flag 대 왕국 my new 단원 직원들뿐 됨뿐 only로 메리 증서를 new로 new 제공 받게 될 뿐 들뿐 only모여라로 오십시요 됨. 어서나오세요. I AM Lovely에게뿐됨 따르릉 주세요 646.932.352일 Russell 프랭클링 코뫼와 함께 모이러 오 세요 --01/30/18---------------------------------------------------------------------------------------------------------------------------------------------------------------------------------------------------------------------------------------------------------------------------------2/20/18---

[명윤희의 행복한 풍선 마을] 풍선 이벤 트 : 돌잔치 결혼식 프로포즈 / 생일파티 개업식, 풍선 교육 : 취미반 비지니스 반, (초급, 중급, 고급)선교 봉사반 ☎ 201-675-7955 08/31/12---------------------------------------------------------------------------------------------------------------------------------------------------------------------------------------------------------------------------------------------YS------------------------------------------OP

70세 성실한 직장인이 시민권자 여성과 만나고 싶습니다 (신분해결 원함) 38세 자영업 초혼남성이 결혼을 전제로 시민권소지여성을원함 (신분해결 원함) 40세 자 영업 여성이 시민권소지 성실한 남자을 원함 (신분해결 원함) 59세 남성이 신분해결 위해 시민권소지 47-62세 까지의 여성을 원합니다 ☎917-587-3835 ☎718-445-5626

TIMES BOARD 산악회 | 동호회 | 구혼 | 심부름센터 | 이혼소속 | 무료강좌 | 홈케어 --3/24------------------------------------------------------------------------------------------------------------------------------------------------------------------------------------------------------------------------------------------------------------------------------4/21/18----

좋은 교육을 받은 젠틀맨이 착하고 이쁜 한국여성을 찾습니다. 친구 또는 결혼을 전제로 만나실분 연락주세요 DAVID ☎646-335-5377 3/17/18------------------------------------------------------------------------------------------------------------------------------------------------------------------------------------------------------------------------------------------------------------------------------------5/15/18

50대 후반에 시민권자 남성 신분무관 연락바람 ☎917-930-7075 3/10/18------------------------------------------------------------------------------------------------------------------------------------------------------------------------------------------------------------------------------------------------------------------------------------3/19/19

짝 찾기 대 운동본부 에서 남여 누구나 짝 을 찾아 드립니다. (초혼재혼)결혼 꼭 망설이지 마시고 언제 든지 연락주세요. 카톡ID:Shim2525 Email:energyshim@gmail.com ☎Mr.심:917-922-2525 10/24/17-------------------------------------------------------------------------------------------------------------------------------------------------------------------------------------------------------------------------------------------------------------------------------------11/18/17

신개념 속눈썹 교육과 도매판매. ◆뉴욕 네일협회-매주 월요일 10am-12pm 교육 ◆뉴저지 교육(매일교육) 속성만: 10am12pm, 8pm-10pm / 30분에 끝나는 테크 닉 / 취업과 수료증, 출장 교육 가능함 La bella7 ☎201-957-3737 05/07-------------------------------------------NYF----------------------------------------------------------------------------------------------------------------------------------------------------------------------------------------------------------------------------------------------

면허취득과 동시에 취업 연결. 토탈 면허 / 스킨케어면허 NY주 미용감독 이선주 직 강, 미용연구반(남자컷, 매직 등), 메이크 업, 영구화장, 롱레쉬 저렴한 학비, 페이먼 플랜 대규모 최신시설. 티파니 미용학교 ☎917-406-8897 op

05/07--------------------------------------------------------------------------------------------------------------------------------------------------------------------------------------------------------------------------------------NY--------------------F----------------------------o

스테이튼 아일렌드 신축 노인 아파트 마감일 4월 9일 ☎927-838-9975 3/27/18------------------------------------------------------------------------------------------------------------------------------------------------------------------------------------------------------------------------------------------------------------------------------------4/24/18

평생 공짜 무료 보험, 세금환급. 반가운 소식.영주권 없는 서류 미비자나 여권 연장 안되는 분에게도 평생 무료 종 합 병원 카드혜택과 사진있는 신분용 은 행카드, 절호의 기회-65세 이상 반액 지 하철 카드, 영주권 있는 분, 무료 종합 병원 카드는 물론이고 생활보조비 메디케이드, 푸드 스탬프, 시민권 신청,노인 아파트 (영 주권 5년, 65세이상 SSI 수혜가능) 천주교명 요한 김 ☎646-339-6091 자비원 장기근무(후속 밝은마음 회장역 임) ☎917-554-8446 뉴욕한인상조회 후원 ☎718-762-3515 2/25/177------------------------------------------------------------------------------------------------------------------------------------------------------------------------------------------------------------------------------------------------------------------------------------6/24/17

사회복지 혜택 서비스 신청. AM 8:30 ~ PM 3:00까지 노인층 저소득 층을 위한 전반적인 복지혜택 서비스와 무료건강 보험 상담 신청 가정 문제 연구소 ☎ 718-321-2400

*현재 보유하신 플랜변경 상담 *처방약 보조(Extra Help) 및 보험료면 제(MSP) 신청 <오바마케어>65세 미만 1. Essential 플랜: 소득에 따라 월보험료 $20이하, $0 Deductible(연중 수시 가입 가능) 2. 메디케이드 및 어린이 건강보험 신청 (ChildHealth Plus) *건강보험 ‘특별가입(SEP)’ 조건에 해 당여부 문의 바랍니다. <사업체 건강보험> 2인 이상 연중 수시 가입/변경 1. $0 Deductible GOLD plan, 주치의 추 천서 불필요 2. Owner만도 가입 가능 *‘보험료 절약’ 문의 바랍니다 162-23 Depot Rd. St #202 Flushing, NY 11358 <조은보험> ☎917-750-5424(C) ☎718-886-5792(O)

03/05--------------------------------------------------------------------------------------------------------------------------------------------------------------------------------------------------------------------------------------------------NYF-----------------------------------------

04/22/14-------------------------NY----------------------------------------------------------------------------------------------------------------------------------------------------------------------------------------------------------------------------------------------------------------

메디케어 보조플랜. 메디케어 환자가 병원 입원시 본인이 부담 해야하는 20%에 대한 대책을 미리 마련 하여 개인비용을 최소화 할 수 있도록 도 와드립니다. 김운경 ☎516-707-0709 ☎201-305-3356

합의 이혼 $500 / 파산 $1500 전문 변호사가 도와 드립니다. (인지대 별도) 35-14 150 Place, Flushing, NY ☎ 718-461-7102 ------------------------------------EH----------------------------------------------------------------------------------------------------------------------------------------------------------------------------------------------------------------------------------------------------------

10/11/16-----------------------------------------------------------------------------------------------------------------------------------------------------------------------------------------------------------------------------------------------------------------------------------11/10/16

2018 메디케어/오바마케어 가입신청 건강보험 전문 '조은 Agency'에서 도와 드립니다. <메디케어>65세 이상 1. 신규 가입(53년생) 및 플랜 변경 2.월보험료 $0, 주치의 $0 Copay, 추천 서 불필요 3. 무료 운동 회원권, 침술, 치과, 안경 및 OTC카드 혜택

운전 면허증 서류미비자(불법체류자) 합법적으로 면허증 받을수 있음 지금 전화 주세요. ☎917-340-0595 3/24/18--------------------------------------------------------------------------------------------------------------------------------------------------------------------------------------------------------------------------------------------------------------------------------구부----

재활협회 메디케어

MD불체자 운전면허

결혼상담소

짝찾기 대운동본부

운전 면허증

메디케어 B 한국여권 5년 매년 1~3월만, 매달 $139 면제

한국인 중국인 남여 누구나 짝을 찾아드립니다. 조선족 환영 탁월한 매칭 전문

짝 찾기 대 운동본부에서 남여 누 구나 짝을 찾아 드립니다. (초혼재 혼)결혼 꼭 망설이지 마시고 언제 든지 연락주세요. 카톡:Shim2424 Email:energyshim@gmail.com

서류미비자(불법체류자) 합법적으로 면허증 받을수 있음 지금 전화 주세요.

장애인재활협회

정식 발급 시행 15년 이상 경험 신규, 갱신 면허정지 해제 모든 문제해결해 드립니다.

929-310-8540

301-787-5250

917-922-2525

917-340-0595

646-691-5846 917-832-4288


www.FindAllNY.com

2018년 4월 03일 (화)

A21


A22

Tuesday, April 03, 2018

www.FindAllNY.com

컴퓨터관련 교육용 아이패드 저가형 출시 IT 시장의 공룡인 애플 이 이제 교육으로 사업을 확장할 계획이다. 애플은 고등학생들을 대상으로 한 교육용 저가

9.7인치 아이패드와 새로 운 소프트웨어 플랫폼을 출시할 예정이라 발표해 큰 관심을 끌고 있다. 이번 아이패드의 주인

COMPUTER 컴퓨터 수리 | 컴퓨터 판매 | 네트워크 | 웹사이트 | 컴퓨터 교육 | CCTV | 업그레이드

공은 애플펜슬로 기존에 아이패드 프로에서만 지 원던 팬슬을 추가하였다. 이번 저가형 모델에서 49 달러짜리 서드파티 스타 일러스 펜인 로지텍 '크 레용'과 같이 저가형 아

--------------------------------------------------------------------------------------------------------------------------------------------------------------------------------------------------------------------------------------------

--------------------------------------------------------------------------------------------------------------------------------------------------------------------------------------------------------------------------------------------

"컴퓨터 수리, 판매 합니다." ☎718-353-0911 ----------------------------------------------------------------------------------------------------------------------------------------------------------------------------------------------------------------------------------------GU--

HD CCTV 설치 및 관리 NYC NJ CT 타주 가능 인터넷 컴퓨터 문제 해결 ☎347-256-9699 ----------------------------------------------------------------------------------------------------------------------------------------------------------------------------------------------------------------------------------------

컴퓨터 출장 수리 업그레이드 판매. 20년 경력 컴퓨터 노하우/ 출장비 픽업/딜리버리 공짜, 수 리비 $30 전화문의 환영 PM 10 시까지 ☎ 718-406-6056 -------------------------------------------------------------------------------------------------------------------------------------------------------------------------------------------------------------------------------------------

컴퓨터 출장 수리 & 교육 업그레이드 컴퓨터에 관한 모든 문제 해결. 픽업 출장수리 B & B 컴퓨터 ☎ 718-279-2685

PCVALLEY 컴퓨터 만족 보장 판매 수리 웹사이트 전 문 모든 컴퓨터 문제 해결 깨진 스 크린 수리 휴대폰까지 , HD초고화질 CCTV 설치 ☎718-762-6000

웹사이트 제작(14년간 뉴욕에서) 기업 교회 단체 웹제작. 저렴한 비 용으로 관리까지 ☎ 347-368-6866 --/16/13-------------------3+2---------NY-----------------------------------------------------------------------------------------------------------------------------------------------------------------------------------------------------

--------------------------------------------------------------------------------------------------------------------------------------------------------------------------------------------------------------------------------------------

컴퓨터 프린트 잉크 사랑방 컴퓨터 교실 컴맹탈출 초급반/중급반/고급반 3개월 12 회 1시간 30분씩 $150로 후원비 만 받습니다. 41-54 149 PL, 플 러싱. 사랑 커뮤니티 센터 제공 ☎ 718-888-9080 ☎ 646-269-2628

잉크 토너,리필 전문점 잉토리 168-04 35 Ave Flushing

718-229-4705

이패드를 299달러에 소 개하였다. 애플은 교실관 리, 학습 진도 앱인 스쿨 워크, 그림, 영상 제작 가 능한 에브리원 캔 크리에 잇을 함께 발표하였다.


www.FindAllNY.com

2018년 4월 03일 (화)

A23


A24

Tuesday, April 03, 2018

www.FindAllNY.com


www.FindAllNY.com

2018년 4월 03일 (화)

A25


A26

Tuesday, April 03, 2018

www.FindAllNY.com

과테말라 독재자 91세로 사망

고이즈미 아들, 총리후보 떠올라

1700명 학살지시 혐의로 기소돼

자민당 수석 부간사장 37세 신지로 돌풍

1700여명에 대한 집단학살을 지시한 혐의로 기 소된 전 과테말라 군부 독재자 에프라인 리오스 몬트가 심장마비로 사망했다. 향년 91세. 1982년 쿠데타로 정권을 잡은 리오스 몬트는 2 년도 안돼 지도자 자리에서 축출됐지만 이에 굴 하지 않고 80대까지 국회의원을 역임하며 재기 를 노린 야심가였다. 의원 자리에서 물러난 이후 집권 당시 집단학살 혐의로 기소됐으나 그는 끝 까지 무죄를 주장했다. 건강 문제로 재판이 종결 되는 것을 보지 못하고 숨을 거뒀다. 뉴욕타임스는 “리오스 몬트는 그의 군대가 수 천명의 남성과 여성, 아이들을 무차별적으로 학 살한 괴물이었지만, 가난한 농부들을 비롯한 많

고이즈미 신지로(37) 자민당 수석 부간사장이 잘생긴 용모와 달변, 작은 키에서 뿜어져 나오는 의외의 카리스마가 합쳐져 자민당 정치인 중 발 군의 인기를 얻고 있다. 그는 '정치인 호감 온도 조사'에서 60.7도를 받아, 49.7도를 받은 아베 신 조 총리를 멀찍이 따돌렸다. 아버지 지역구를 물려받아 28세에 처음 당선된 뒤 작년 총선 때 4선에 성공했다. 당 지도부에 돌 직구 쓴소리를 서슴지 않는 뱃심 덕에 가능했다. 작년 10월 총선 후 아베 총리가 고이즈미를 '수 석 부간사장'으로 전격 발탁한 것도 그런 이유 다. 10~20선 의원이 수두룩한 일본 정계에서 4 선은 아직 '주니어'인데, 당 중책을 맡긴 것이다.

은 과테말라인들은 그를 희망을 심어준 신화적 인 영웅이라고 믿고있다”고 평가했다. 86세에 정계를 은퇴한 리오스 몬트의 말년은 소 송으로 얼룩졌다. 그는 집권 당시 마야 원주민 익 스족을 과테말라 군부에 저항하는 반군세력으로 간주해, 1771명에 대한 대량학살을 지시하고 2만 9000명에 달하는 원주민을 강제 이주시킨 혐의 로 기소됐다. 2012년 의원 자리에서 물러난 리오스 몬트는 면 책특권을 잃게 되자 곧바로 기소돼 재판을 받아, 80년형을 선고받았고, 10일 뒤 헌법재판소가 원 심 무효 판결을 내렸다. 그러나 이후 법적 논쟁 이 벌어진 끝에 2015년 그는 재심을 명령받았다.

고이즈미는 말투도 외모도 전성기 때 아버지의 판박이다. 그의 연설은 내용은 쓴소리, 표현은 돌 직구이지만 결코 폭언까지 안 나가고 '선'을 지킨 다. 긴말 없이 박력 있게 정곡을 찌르되, 잘난 척 하지 않는 말솜씨다. 지난달 니혼게이자이신문과 교도통신이 '차기 총리로 누가 적합한가' 조사했다. 고이즈미는 이 시바 시게루(61) 전 방위상(25%)과 아베 총리 (24%)에 이어 3위(22%)를 했다. '차기'는 확실 치 않을지 모르지만, '차차기'는 가장 유력한 주 자인 것이다.


발행인 이명석

T. 718-359-0700 / 718-353-3805

F. 718-353-2881

E. findallny@gmail.com

뉴저지 벼룩시장 지국장 박정태 : 201-937-3289 2018년 4월 3일 (화) TUE.

김정은을 대화하게 만든 원인? 북한에서 일상화된 '장마당 경제' 때문 허가된 '장마당' 404개…GDP 25% 차지

김정은 북한 노동당위원장의 대화 행보와 남북교류 추진, 갑작스런 중 국 방문은 최근 북한의 일상화된 ‘장 마당 경제’ 때문이라는 분석이 나왔 다. 준 시장경제로 향해 가는 북한에서 제재로 인해 자금줄이 끊긴 권력 엘 리트층이 김정은위원장을 제재 완화 를 위한 대화의 장으로 등 떠밀었다 는 것이다. 조선일보는 임수호 국가안보전략 연구원 책임연구위원을 인용, “북한 의 소비재 시장인 장마당은 이제 공 식적으로 ‘종합시장’이라고 부를 만 큼 일상화돼 있다”며 “여기에 이미 자본시장도 활성화돼 있는데, 이 자 본 시장을 움직이는 ‘돈주’의 배후에 있는 권력 엘리트들이 대북 제재의

영향을 받아 김정은이 움직였다는 말이 나온다”고 밝혔다. 돈주는 북한의 신흥 부유층으로 1980~1990년대 장마당을 통해 자본 을 축적했거나, 최근 무역을 통해 들 어오는 외화로 부를 축척했다. 임수호 위원은 “과거 구소련이 해체 되기 직전 전체 GDP에서 시장경제 가 차지하는 비중이 25%가량이었다 면 북한은 30~40%, 최대 50%까지인 것으로 보고 있다”며 “군수·철강· 제강 등 일부를 제외하고는 사실상 모두 시장화돼 있는 준시장경제”라 고 했다. 실제로 남측 예술단 평양 공 연을 위해 방북한 한국 취재진들에 게는 1일 스마트폰을 사용하며 화려 한 옷을 갖춰 입은 평양 시민들의 모 습이 포착되기도 했다. 전문가들은 “

시민들이 가진 스마트폰 등 일상 소 비재들은 상당수 장마당에서 구한 것”이라고 했다. 통일연구원의 지난 2016년 조사에 따르면 북한에서는 공식허가를 받은 시장만 404개가 운영되고 있고, 상 인·관리자 등 관련 종사자는 110만 명에 가까운 것으로 나타났다. 위성지도를 통해 분석한 결과 북한 공식 시장의 대지 면적을 모두 더하 면 약 184만㎡로, 일산 신도시보다 넓었다. 또 한국의 동대문시장보다 넓은 시장도 청진 수남시장을 포함 해 북한 전역에 9곳 있었다. 홍민 통 일연구원 북한연구실장은 “북한 시 장이 국가 권력과 긴밀히 유착된 상 태에서 국가와 시장 상당 부분이 친 화적으로 결합한 형태로 진화하고

[B6면에 계속]


B2

Tuesday, April 03, 2018

www.FindAllNY.com


www.FindAllNY.com

2018년 4월 03일 (화)

B3


B4

Tuesday, April 03, 2018

www.FindAllNY.com


www.FindAllNY.com

2018년 4월 03일 (화)

B5

"고객만을 위한 서비스로 급성장…美 최대규모로 우뚝" 푸른투어, 10년만에 임직원 130여명 …뉴저지 릿지필드에 사옥 오픈 최근 미주 한인업계에서 최대규모의 여행사 및 관광회사로 성장한 푸른투 어(대표:문 조)가 뉴저지 릿지필드에 신사옥을 마련해 확장 이전했다. 푸른 투어는 문 조 대표와 임직원을 비롯, 이종철 팰리세이즈파크 부시장 등 지 역사회 대표자들과 업계 관계자가 참 여한 가운데 신사옥 이전식을 갖고, 제 2의 출발을 다짐했다. 이 날 문 조 대표는 “10년 전 2평 남짓 한 사무실에서 시작한 첫걸음이 오늘 에 이르는 급성장을 할 수 있었던 것 은 오직 고객만을 보고 걸어온 결과” 라며, “신사옥 이전과 더불어 초심을

글로벌 어린이재단 NJ지부 4월7일 '나눔의 바자회' 개최

지난 20년간 전세계 불우한 아동들 의 구제와 복지, 교육과 선도를 위해 활동해 오고 있는 ‘글로벌 어린이재단 (GCF)‘ 뉴저지지부(회장 애슐리 육) 가 오는 4월 7일(토) 오전10시부터 4 시까지 뉴저지 포트리에 있는 더블트 리호텔 2층 행사장에서 결식 아동 지 원을 위한 기금마련 ‘나눔의 바자회’ 를 개최한다. 이번 바자회에는 재단 임원 및 회원 들의 기증품 들을 비롯해 40여개의 업

체가 참여해 패션의류, 악세사리, 가 방, 건강식품, 미용, 화장품, 생활잡화 류 및 먹거리등 다양한 제품들이 시 중가 보다 저렴하게 판매할 계획이다. 이번 바자회는 결식 아동 돕기 기금 마련을 목적으로 준비되었으며, 글로 벌 어린이재단 (GCF)회원들과 여러 브랜드사들이 적극 참여해 나눔실천 의 의미를 더욱 깊게 할 전망이다. 뉴저지지부 애슐리 육회장은 “이번 바자회를 통해 모인 기금 중 일부는

우리 가까이 사는 지역사회 아동을 위 해 쓰일 것”이라며 “7월7일 뉴저지에 서 열리는 재단 총회에서 도움이 필요 한 지역사회 아동들에게 지원금이 전 달될 계획”이라고 전했다. 글로벌 어린이재단(GCF)은? 글로벌 어린이재단(Global Children Foundation) 은 어머니의 사랑을 통해 경제적, 사회적 위협에 처해 있는 세계각처의 불우한 어린이 들을 구제하고 이들의 복지와 선도를 위해 결성된 기구로서 지난 1998년 한 국의 금융위기로 인해 많은 실업자들 이 생겨나면서 늘어난 결식아동들을 돕기 위해 만들어졌다. 올해로 창립 20주년을 맞이하는 글 로벌 어린이재단은 현재 회원수가 5800여명에 이르며 전 미주와 캐나다 지역, 아시아 지역을 포함하여 21개 지부에서 활동하고 있으며, 한국을 포 함해 41개국의 불우한 어린이들을 돕 고 있다. 설립 후 현재까지 390만달러 를 모금, 세계각지 50만명 이상의 아 동을 도왔다.

잃지 않고, 더욱 발전하는 모습을 보 이겠다”고 포부를 밝혔다. 또한 이종철 팰리세이즈 파크 부시 장은 축사를 통해 “푸른투어가 한인 업체의 성장을 이끄는 모범적인 사례 가 되어 한인 동포 사회의 활력이 되 길 바란다”고 밝혔다. 푸른투어는 이번 확장, 이전한 리치 필드 신사옥 본사를 중심으로 뉴욕, LA, 토론토, 서울 등 지점을 갖추고 있으며, 최근 라스베가스 지점을 오 픈하는 등 미주 여행업계에서 동서부 를 막론하고 가장 빠르게 급성장을 이 룬 여행사로 한인사회에 화제가 되고

있다. 푸른투어 관계자는 “이 급성장의 바 탕에는 다양한 프로그램과 책임감 있 는 임직원들의 사명감이 바탕이 되고 있다”고 그 원인을 찾고 있다. 푸른투 어는 이번 신사옥 확장, 이전으로 북 미지역 최초의 단독 사옥을 보유한 한 인 여행업체로 기록되었다. 특히 70여 명의 전문 가이드를 포함 한 130여명의 직원들이 150여개의 다 양한 투어프로그램으로 여행객들의 높은 만족감을 얻고 있어 앞으로의 발 전이 주목되고 있다. <글.사진 장선직 기자>


B6

Tuesday, April 03, 2018

www.FindAllNY.com

북한 달라졌다…김영철 "취재 제한"조치 사과

위원장 참석으로 혼선 빚어…김영철, 기자단 찾아가 직접 사과

김영철 북한 노동당 중앙위원회 부위 원장 겸 통일전선부장이 남쪽 예술단의 평양공연 취재 과정에서 벌어진 출입통 제 논란에 대해 남쪽 기자단에게 사과했 다. 북 고위 인사가 남쪽 취재진의 항의 에 대해 직접 사과한 것은 이례적이다.

김 부위원장은 남쪽 예술단의 평양공 연 ‘봄이 온다’를 취재하기 위해 평양을 방문한 기자단을 만나 “남쪽 예술단이 첫 공연을 했는데 기자들의 취재활동에 서 많은 제한을 받아 불편하다고 전해 들었다. 사죄라고 할까, 양해를 구한다” 고 말했다. 기자단은 북쪽의 취재 제한조처에 대 해 강력히 항의했고, 이에 김 부위원장 이 직접 취재진의 숙소를 찾아 공식 사 과한 것이다.

그는 “취재활동을 제약하고 자유로운 촬영을 하지 못하게 하는 건 잘못된 일 이다. 행사에서 (김정은) 국무위원장의 신변을 지켜주는 분들과 공연 조직하는 분들이 협동이 잘 되지 않은 것 같다”고 해명했다. 이어 “의도적으로 취재활동에 장애를 조성하거나 촬영을 못하게 하려는 것은 아니었다. 우리가 초청한 귀한 손님들인 데 다시는 그런 일이 없도록 잘하겠다” 고 재발 방지를 약속했다.

"북한 영변 경수로 인근에 새로운 건물 건설"…위성 분석

북한이 평안북도 영변 핵단지 실험용 경수로 인근에 새로운 건물을 건설하고

있다는 주장이 제기됐다. 미 존스홉킨스대 산하매체 ‘38노스’는 지난달 20일 촬영한 위성 이미지를 통해 영변 핵시설장의 실험용 경수로 외곽을 둘러싼 벽 안쪽에서 건물 건설 징후가 포착되고 주변에서 건설 차량 움직임을 확인했다고 전했다. 북한은 전기 공급을 구실로 경수로를

유지하고 있다. 그러나 미국은 핵무기 주원료인 플루토늄 생산 등 군사용으 로 전용될 가능성을 우려해 경계를 높 이고 있다. 뉴욕타임스도 위성사진 분석 결과 실 험용 경수로 굴뚝에서 배출 가스가 나오 는 점을 들어 시험 운용이 시작됐을 가 능성을 전했다.

김정은을 대화하게 만든 원인?

있다”고 했다. 조선일보는 북한 전문가의 말을 인 용, “대북 제재가 아직 북한 경제를 전 반적으로 흔들어 놓지 못했지만, 이미

시장경제 없이는 살 수 없게 된 권력 엘 리트층들의 자금줄이 마르는 등 큰 영 향을 받고 있는 것으로 보인다”며 “엘 리트층의 이반 가능성도 배제할 수 없 는 상황”이라고 했다. 다만, 북한 시장 경제의 활성화가 아 직까지는 김정은 체제를 뒤흔들기엔 부족하다는 지적도 있었다. 양문수 북한대학원대학교 교수는 “북 한에서 시장의 비중이 상당히 높아진 건 맞지만, 지금은 정권이 시장을 이용 하는 단계이지 아직 시장이 정권을 뒤

흔들지는 못하고 있다”고 했다. 경제학 자들은 통상적으로 시장 경제가 도입 되고 1인당 GDP가 5000달러 수준이 되면 사회주의·독재 정권이 흔들리 는 경향이 있다고 보는데, 북한의 1인 당 GDP는 1000달러 수준이다. 한 전직 외교관은 “북한이 더 이상 시 장 경제 없이는 살 수 없게 되면서 시 장 의존적이 되고 있는 건 맞다”며 “분 명한 건 최근의 강력한 대북 제재가 그 런 북한의 시장을 흔들었고, 일정 부분 효과를 발휘했다는 것”이라고 말했다.


www.FindAllNY.com

2018년 4월 03일 (화)

건축·부동산

B7

CONSTRUCTION REAL ESTATE

건축| 룸메이트 | 렌트 | 가게매매 | 하우스매매

ᵝ┾⎵ᦶ⎹ࠥᔢᨦᬊÕྜྷ ๅๅၰ౭✙ᱥྙ ⦺Ǒᳬᮡᄁᯕᔍᯕऽ ญ✡ֆ ə౩ᯨֆ౭✙ྙ᮹⪹ᩢ

⚍ᯱᬊÕྜྷၰb᳦ๅๅᔢ‫⧕ݕ‬ऽพ‫݅ܩ‬ ⥥௝ၙᜅ ᇡ ߑᅕ௝ᱶ



한국서 절대 투자하면 안될 부동산 5가지는? 그린벨트를 해제할 때를 기대하고 투자 하는 일종의 ‘깜깜이 투자’는 투기성이 너무 강하다.

“베이비부머(1955~1963년생)들은 은 퇴 이후에도 부동산 시장의 왕성한 소비 자로 남겠지만, 투자의 패턴은 달라져야 한다. 요즘 인기있는 농작물을 활용한 수 익형 전원주택이나 그린벨트 투자는 너 무 위험하다. 고령화 시대라고 ‘실버주 택’에 투자하는 것도 난센스다.” 20여년간 부동산 전문기자로 일하며 한 국 부동산 시장과 정책 흐름을 지켜본 김 순환씨는 절대 투자해선 안되는 부동산 5 가지를 꼽았다.

■"실버주택 전성시대는 오지 않는다" 세계에서 고령화가 가장 빠른 한국 실버 주택 확산은 필연적이라고 생각할 수 있 다. 하지만 김씨는 “고급 실버주택들이 경기 도 분당과 용인 일대에 많이 분양됐지만 어떤 단지도 성공한 적이 없다”고 지적 했다. 왜 그럴까. 한마디로 실버주택은 투자할 가치가 없기 때문이다. 실제 실버주택은 투자 가치보다 거주 편의성과 만족도에 집중한다. 문제는 앞으로도 우리나라에 선 투자 가치가 거주 편의성과 만족도보 다 우선시된다는 것이다. ■"대학가 주변 부동산은 피해야" ‘대학가 부동산’도 피해야 한다. 김씨는 “서울을 제외하면 빨리 대학가 부동산 시 장에서 빠져나오는 게 상책”이라고 했다. 지방 소재 대학들의 ‘지방 탈출’ 현상이 벌어지고 있다. 지방 대학들이 수도권 진 출에 목숨거는 이유는 대학 취학을 위해

지방으로 내려오는 학생 수가 급감하고 있는 탓이다. 수요자가 없는 부동산 시장 은 살아남을 수 없다. 김씨는 “대학 구조조정은 앞으로 더 심화 하고 결국 서울 소재 대학도 학생이 줄어 드는 시대가 될 것”이라며 “대학생 감소 는 대학 상권과 부동산의 몰락을 가져올 것”이라고 예상했다.

■"빌라는 무조건 팔거나 개축해야" 주거 환경이 열악한 지역의 다세대·다가 구주택이나 연립주택보다 차라리 소형 아파트를 보유하는 것이 현명하다. 최근 수도권에 빌라가 과잉 공급된 것도 우려할만하다. “주택 중에 빌라처럼 애매 한 상품도 없다. 빌라는 단독주택도, 다가 구주택도 아니고 이름도 애매한 다세대 주택이다. 한때 빌라는 집없는 서민들의 내집마련용 주택이나 전셋집으로 역할을 톡톡히 했지만, 향후 5년 동안 슬럼화로 치달을 가능성이 크다.”

■"그린벨트 투자 유혹을 이겨라" 그린벨트 투자는 투기성이 강해 은퇴자 나 고령층에게는 전혀 어울리지 않는다. “그린벨트로 유혹하는 부동산 업체들이 의외로 많다. 특히 정부가 그린벨트를 일 부 해제하기 위해 연구용역에 착수하는 시기에 브로커가 기승을 부린다. 정부가

■수익형 전원주택은 과장됐다 은퇴하면 교외에 텃밭 딸린 별장같은 전 원주택을 짓고 살고 싶은 꿈이 있다. 그러 나 전원주택 부지에 농작물을 심어 수익 까지 낼 수 있다는 ‘수익형 전원주택’ 투 자 정보도 넘쳐난다. 예를 들면 ‘전원주택 부지 00㎡와 호두 농원 토지 00㎡ 마련’ ‘00버섯 특화재배 단지 분양받아 임대·위탁하면 월 500만 원 고수익 보장’ 같은 광고다. 이런 광고 에 은퇴자들이라면 귀가 솔깃하기 마련 이다. “수익형 전원주택 광고에서 제시하는 수 익률은 농산물 값이 가장 비싸고, 수확량 이 최대일 때를 기준으로 하는 경우가 많 다. 땅값도 전원주택 부지 주변 개발이 진 행될 때나 오를 수 있다.


B8

Tuesday, April 03, 2018

www.FindAllNY.com

서울 홈스테이

NJ 홈스테이

플러싱 룸메

플러싱 룸메

플러싱 룸메

플러싱 룸메

한국방문시 숙박호텔비 절약 6호선 마포구청역 1분거리 오피스텔(킹베드,취사도구, 세탁기,냉장고,WiFi,인터넷)

플러싱 메인과 프랭크린 Av 코너 APT 큰방$650 작은방 $400 냉장고 가구있음 여성분 구함

플러싱 큰방 / 거실 저렴한 가격 (주인직접)

안전하고 조용한 환경 유학생 원합니다. 유틸 포함 1인 1실 700불 2인 1실 400불

한국 010-5941-3360 미국 201-699-2970

뉴저지 홈스테이 안전하고 조용한 환경에서 홈스테이 할 초.중.고 학생 및 유학생 구합니다.

201-562-0522

917-774-2264

917-742-1200

718-219-1399 718-219-9914

플러싱 구화식품 건너편 서브웨이 3분거리 화장실 딸린 독방 룸메이트 구함 모두포함 $850

347-542-0066

천리마 이사

맨해튼 32St 독방

223가 룸메이트

베이사이드 룸메

베이사이드 룸메

베이사이드 룸메

중소형·유학생·장거리 이사전문

맨하탄32가 독방$1200. 4인 쉐어룸 $750. 3개월이상 할인 (주인직접)

223St 67Ave 깨끗한 큰방 주차편리 가구완비 취사 인터넷 세탁기 학생 및 직장인 여성분 유틸포함 $800

219St 64Av 비원식당뒷편 깨끗한방 금연자 직장인원함 기차교통 마켓편리 인터넷

노던 한블럭 202St 새집 홈스테이, 룸메이트 하실분 유틸리티, 세탁기 포함 버스정류장 5분이내, LIRR 근교(교통편리)

베이사이드. 206가 교통편리 한곳에서 룸메이트. 구함 취사 가능. 파킹 편리함

917-834-1011

646-539-9197

646-465-3349

347-323-0079

IKEA 픽업&딜리버리 전문

718-902-4884

917-418-5980 -3/10/18-----------------------------------------------------------------------------------------------------------------------------------------------------------------------------------------------------------------------------------------4/7/18

NY세레니티 149St 플러싱 빅세일!깨끗, 조용 샤워장 있는 큰방 빅세일!깨끗, 조용 샤워장 있는 큰방 1인$70 2인$80 커플 큰방1인60 2인70. 싱글방$40 쉐어룸 1인하루$30$25 10박 이상 $20 1인월$420/$450 인터 넷 파킹. 카톡:korhouse ☎718-791-7905 2/4/17---------------------------------------------------------------------------------------------------------------------------------------------------------------------------------------------------------------------------------------------6/30/18

우정 하숙 노던 149st 35Ave. 유학생 주재원 여행객 환영, 장단 기 룸메이트, 생활 환경 요지, 7번 전철 도보 가능, 버스(28,13,15)

정류장 1분 거리, 샤워장 딸린 독 방 있음, 인터넷, 케이블 TV 무료, 가구완비, 파킹랏 있음 ☎718-672-4778 ☎917-518-0655

스테이션 종점까지 20분거리 향수하숙 ☎917-613-1473 -12/9/17-----------------------------------------------------------------------------------------------------------------------------------------------------------------------------------------------------------------------------------------3/6/18--

-3/20/18------------------------------------------------------------------------------------------------------------------------------------------------------------------------------------------------------------------------------------------4/24/18

플러싱 유니온 34AVE 가구 인터넷 유틸포함 $650 여자분 원함 ☎718-510-4579 4/3/18--------------------------------------------------------------------------------------------------------------------------------------------------------------------------------------------------------------------------------------4/28/18--

뉴저지 홈스테이 안전하고 조용 한 환경에서 홈스테이 할 초.중.고 학생 및 유학생 구합니다. ☎201-562-0522

베이사이드. 206가 교통편리 한곳, 파킹 편리함 룸메이트 구함. 취사 가능. ☎917 -418 -5980

164St 플러싱 최고 럭셔리하우스 민박 장단기 룸메이트 환영 화장실 딸린 큰방있음, 맨하탄 팬

플러싱 욕실 있는 큰방 $700 144-23 Barclay Ave 유학생 혹 은 직장인 1인 여성분, 금연자 ☎718-864-2124

-3/27/18------------------------------------------------------------------------------------------------------------------------------------------------------------------------------------------------------------------------------------------4/24/18

-------------------------------------------------------------------------------------------------------------------------------------------------------------------------------------------------------------------------------------------------------

7/8/17------------------------------------------------------------------------------------------------------------------------------------------------------------------------------------------------------------------------------------------PJ12/19/17

베이사이드 기차역 노던근처 새로꾸민 큰독방 침대 책상 책장 남자분 즉시입주 ☎917-830-6695

-4/03/18------------------------------------------------------------------------------------------------------------------------------------------------------------------------------------------------------------------------------------------4/28/18

4/24/18-----------------------------------------------------------------------------------------------------------------------------------------------------------------------------------------------------------------------------------------9/22/18

한국에서 홈스테이 하실 분 (미국에서 한국으로 오시는 분) 경기도 구리시 시내, 쾌적한 곳 ☎+82-10-2255-3557

파킹. 아주 편리함. 학생이나. 직장인 남자분 환영. 유틸리티포함650불 ☎646-707-1175

4/3/18-------------------------------------------------------------------------------------------------------------------------------------------------------------------------------정이-----------------------------------------------------6/30/18--

깨끗하고. 넓은 방 키세나 76 Ave 에서 룸메이트 구함.

뉴욕장로병원 옆 밝은독방 가구 인터넷 유틸포함 $700 가족같이 오래계실 중년남성 집안에서 금연 ☎917-337-0606 4/3/18------------------------------------------------------------------------------------------------------------------------------------------------------------------------------------------------------------------------------------------4/28/18--

플러싱 34-20AVE 141가 파슨블러바드 아파트 교통편라 한아름 반블럭 홈케어 받으실분 한명 모든사람 ☎718-879-2714 4/3/18-------------------------------------------------------------------------------------------------------------------------------------------------------------------------------4/28/18-----------------------------------------------------------

플러싱 스카라인 APT 큰방렌트 냉장고있음 유틸포함 $700 ☎917-207-0273 -3/24/18------------------------------------------------------------------------------------------------------------------------------------------------------------------------------------------------------------------------------------------4/21/18

플러싱 노던 141가 한아름 뒷편 아파트 큰방 교통편리 햇빛잘드는방. 큰옷장 침대 책상 인터넷 짐적으신분. 취사가능 금연학생 직장여자분 $650 ☎718-702-8748 -3/24/18------------------------------------------------------------------------------------------------------------------------------------------------------------------------------------------------------------------------------------------4/21/18

교통편리한 플러싱 유니온 깨끗한독방 인터넷사용 하숙도 가능 ☎201-566-3292

플러싱 깨끗한마루 2층 큰독방 돌침대, 인터넷 , T.V, 냉장고 금연자 원함 플러싱 160St 45Av 사이 즉시입주 Q65 2분거리 ☎718-427-0800 ☎010-400-2301 -3/10/18------------------------------------------------------------------------------------------------------------------------------------------------------------------------------------------------------------------------------------------4/10/18

모든가구 갖춘 욕실딸린 큰독방 냉장고 인터넷 포함 7033 57Dr Q58 버스 직장인 학생원함 $800 ☎718-457-2602


www.FindAllNY.com

2018년 4월 03일 (화)

-2/20/18------------------------------------------------------------------------------------------------------------------------------------------------------------------------------------------------------------------------------------------3/27/18-

-3/17/18------------------------------------------------------------------------------------------------------------------------------------------------------------------------------------------------------------------------------------------4/14/18

와이스톤 버스 1분거리 한가족처럼 큰방같이 쓰실분 취사가능 금연자 짐없으신분 여자분환영 $300 ☎718-666-8656 -3/10/18-----------------------------------------------------------------------------------------------------------------------------------------------------------------------------------------------------------------------------------------4/7/18

스토니브룩 근처 룸메이트구함 유학생원함 $700 전원생활 원하시는분 환영 ☎917-803-5141

72St 잭슨하잇 짐 적으신 분 한분 $650 (직장인 환영) 두사람 $900 (부부 가능) 취사가능, 큰 독방 퀸사이즈 침대 냉장고, 유틸포함 ☎929-346-1251 ☎347-394-8256

3/10/18---------------------------------------------------------------------------------------------------------------------------------------------------------------------------------------------------------------------------------------4/7/18--

-3/17/18------------------------------------------------------------------------------------------------------------------------------------------------------------------------------------------------------------------------------------4/14/18--

----3/3/18--------------------------------------------------------------------------------------------------------------------------------------------------------------------------------------------------------------------------------------

베이사이드 212St 43Ave 노던 기차역근처 화장실 딸린 큰독방 $1150 조용한독방 $800 인터넷포함. 여자분 원함 ☎516-776-0204

-3/6/18------------------------------------------------------------------------------------------------------------------------------------------------------------------------------------------------------------------------------------------4/3/18-

베이사이드 204가 노던1블럭 깨끗한 큰 독방 인터넷가능 파킹편리 $750 학생 직장인여성원함 ☎917-656-2099 ☎917-685-4543

-2/10/18------------------------------------------------------------------------------------------------------------------------------------------------------------------------------------------------------------------------------------------4/10/18-

플러싱 샌포드143-33 큰방 룸메이트 구함 ☎917-714-7779 플러싱 149-45노던 APT 큰방 인터넷 완비 직장다니시는 여자 분 원함 $550 ☎917-445-4246 -2/13/18------------------------------------------------------------------------------------------------------------------------------------------------------------------------------------------------------------------------------------------3/13/18-

B9

플러싱 여자 룸메이트 햇빛 잘 듦. 화장실 있는 큰독방 큰침대 TV 책상 식탁 에어컨 냉 장고. $700 ☎347-303-1947 ☎347-336-4280 엘머스트 82가 큰 독방 쓰실 여성분 구함, 금연자 전철 3분거리 ☎718-651-7103

플러싱 167가 깨끗한독방 독방 2개 룸메이트구함 옷장 침대 인터넷사용 ☎646-250-7797 -3/10/18------------------------------------------------------------------------------------------------------------------------------------------------------------------------------------------------------------------------------------------4/7/18-

앨머스트 80St 새집 전철 2분거리 큰방 $850 작은방 $750 침대 인터넷 완비 금연자 여성분 원함 ☎347-414-0520 ☎347-585-1008

-2/13/18------------------------------------------------------------------------------------------------------------------------------------------------------------------------------------------------------------------------------------------3/13/18-

뉴저지 레오니아 집앞 버스정거장, 취사가능. 인터 넷, 세탁기. 드라이어, 즉시입주.남자분원함 룸메이트/$550 스튜디오/$750 ☎201-575-1220

-3/6/18-----------------------------------------------------------------------------------------------------------------------------------------------------------------------------------------------------------------------------------------4/3/18

뉴저지 팰팍 깨끗한 하우스2층 근면한 여자분 잠만잘시 $500 취사할시 $550 ☎201-600-8549

최고의 위치 노던선상에 위치한 넓은파킹장 스페이스 렌트합니 다. 전화 문의주세요. (타투 아이리쉬.바디.맛사지 등.) ☎646-932-0908

-3/13/18-----------------------------------------------------------------------------------------------------------------------------------------------------------------------------------------------------------------------------------------4/10/18

8/15/17-----------------------------------------------------------------------------------------------------------------------------------------------------------------------------------------------------------------------------------------------GU

-04/03/18--------------------------------------------------------------------------------------------------------------------------------------------------------------------------------------------------------------------------------박지------------

-2/13/18------------------------------------------------------------------------------------------------------------------------------------------------------------------------------------------------------------------------------------------3/13/18-

플러싱 149St 노던근처 화장실 딸린 큰방 에어컨 인터넷 마루바닥 모두포함 $750 ☎646-301-7017

뉴저지 팰팍 $520 근면한 여자분, 뉴욕버스 1분거리(출입문별도), 가구완비,인터넷,세탁기,에어 컨,간단한 취사가능, 금연자, 즉 시입주 ☎201-968-7789


B10

Tuesday, April 03, 2018

www.FindAllNY.com

----------------------------------------------------------------------------------------------------------------------------------------------------------------------------------------------------------------------------------------------------

트럭 파킹 스페이스 구함. 플러싱. 칼리지포인트. 와이스톤 근교 ☎646-294-0022

롱아일랜드 락빌센터 드럽 클리 너 스패이스 렌트 800SF 고급동 네 시설완비 렌트 $2500 (부/리차드박)☎718-926-2030 -----------------------------------------------------------------------------------------------------------------------------------------------------------------------------------------------------------------------------------------------------

------------------------------------------------------------------------------------------------------------------------------------------------------------------------------------------------------------------------------------------------SERVICE

창고 구합니다. 1.000sq 정도. 죠지 와싱턴 브릿지에서 가까운 곳에 위치한곳 ☎201-518-6550 ***------********----------------------------------------------------------------------------------------------------------------------------------------------------------------------------------------------------------------------------------------

Astoria 최상의콘도 2BR 2Bath 맨하튼 전망 넓은발코니 Doorman indoor pool, Gym.sauna.parking 포함 No Pet wood floor $2800 ☎718-578-0936

플러싱43/156st아파트빌딩 2br 마루히팅포함 $1750 ☎917-939-3940(부) -----------------------------------------------------------------------------------------------------------------------------------------------------------------------------------------------------------------------------------------------------

플러싱 3Bed 1.5Bath 146가 26Ave. 2층나무주차별도 $2500 www.withfinder.com/사진보기 (부/제임스킴)☎646-539-9197

--

리틀넥 새시설 스페이스 렌트 2층 파킹 많음 !! 전문직사무실/튜터 학원 등으로 적합 렌트 $1800 (부/리차드박)☎718-926-2030 -------------------------------------------------------------------------------------------------------------------------------------------------------------------------------------------------------------------------------------------------------

뉴져지 클립사이드팍 1BR 아파트렌트 교통편리, 즉시시입주가능, 자세 한내용 전화문의 (주인직접) ☎201-390-1188 --3/3/18------------------------------------------------------------------------------------------------------------------------------------------------------------------------------------------------------------------------------------------4/7/18--

플러싱4Bed 2Bath 159가 41Ave. 2층나무 $2400 www.withfinder.com/ 사진보기 (부/제임스킴)☎646-539-9197 ----------------------------------------------------------------------------------------------------------------------------------------------------------------------------------------------------------------------------------------------------

플러싱2Bed 150가 21Ave. 2층나무전부포함$1860 www.withfinder.com/ 사진보기 (부/제임스킴)☎646-539-9197 ----------------------------------------------------------------------------------------------------------------------------------------------------------------------------------------------------------------------------------------------------

플러싱 아파트 2BR 168St 36Ave 6층 나무 히팅과 온수 기차역$1900 www.withfinder.com/사진보기 (부/제임스킴)☎646-539-9197 -------------------------------------------------------------------------------------------------------------------------------------------------------------------------------------------------------------------------------------------------------

플러싱 2BR 160St 샌포드 2층 나무 히팅과 온수 $1750 www.withfinder.com/사진보기 (부/제임스킴)☎646-539-9197

--3/27/18-----------------------------------------------------------------------------------------------------------------------------------------------------------------------------------------------------------------------5/18/2018---------------

-----------------------------------------------------------------------------------------------------------------------------------------------------------------------------------------------------------------------------------------------------

써니사이드 43/46 Street 아파트빌딩 마루 히팅포함 1BR $1750 ☎917-939-3940(부) -----------------------------------------------------------------------------------------------------------------------------------------------------------------------------------------------------------------------------------------------------

플러싱아파트 1Bed 노던과파슨 4층나무 히팅과온수전철및기차 $1750 www.withfinder.com/ 사진보기 (부/제임스킴)☎646-539-9197

플러싱3Bed 2Bath 듀플렉스 134가6 1Ave. 2층과 3층 나무 1200sf. 발코니3개 $2500 www.withfinder.com/ 사진보기 (부/제임스킴)☎646-539-9197

-------------------------------------------------------------------------------------------------------------------------------------------------------------------------------------------------------------------------------------------------------

플러싱3BR 2Bath 153St 35Ave 1층과 지하 가라지 $2400 www.withfinder.com/사진보기 (부/제임스킴)☎646-539-9197 -------------------------------------------------------------------------------------------------------------------------------------------------------------------------------------------------------------------------------------------------------

----------------------------------------------------------------------------------------------------------------------------------------------------------------------------------------------------------------------------------------------------


www.FindAllNY.com

사무실 렌트 칼리지 포인트 Bjs 근처 이층 1,800SF 파킹 2대 다용도실, 화장실 포함 화물 엘리베이터 사용가능 $3,750 (부/데보라 정)

917-436-6944 플러싱 3BR 2Bath 144St 37Ave 3층 나무 $2400 www.withfinder.com/사진보기 (부/제임스킴)☎646-539-9197 -------------------------------------------------------------------------------------------------------------------------------------------------------------------------------------------------------------------------------------------------------

플러싱3BR 2Bath 샌포드 147St 3층 나무 1200Sf 주차별도 $2400 www.withfinder.com/사진보기 (부/제임스킴)☎646-539-9197 -------------------------------------------------------------------------------------------------------------------------------------------------------------------------------------------------------------------------------------------------------

2BR 194St 39Ave 어번데일 기차역 노던도보 새부엌 힛포함 $1850 (부/리차드박)☎718-926-2030 -------------------------------------------------------------------------------------------------------------------------------------------------------------------------------------------------------------------------------------------------------

독채 3BR 1.5Bth 169St 36Ave 브로드웨이 기차역도보 꾸민지하 세탁기/건조기 $2400 (부/리차드박)☎718-926-2030 -------------------------------------------------------------------------------------------------------------------------------------------------------------------------------------------------------------------------------------------------------

2BR 149St 45Ave 아주깨끗함 Q27버스 이지파킹 $1950 (부/리차드박)☎718-926-2030 -------------------------------------------------------------------------------------------------------------------------------------------------------------------------------------------------------------------------------------------------------

2BR 156St 43Ave 1층 아파트 노던도보 힛포 함 $1700 (부/리차드박)☎718-926-2030

2018년 4월 03일 (화)

B11

브루클린 렌트

브롱스 렌트/매매

플러싱 렌트

스페이스 렌트

스페이스 렌트

·브르클린 2층 2BR 발코니

플러싱 유니온 32AV 한아름부근 새빌딩 완전새 단장 2 BR 2Bath 베란다 자꾸지 세탁기 월 $2000 (주인직접)

가게 공간 렌트 159가와 노 던 만나는곳 1.2층 할렐루 야 백화점네 (렌트비는 넓이 에 따라 상담요망)

히팅 포함 $1,700

브롱스 가까운 용커스 (안전한 지역)18년된 위치 좋은 가게 건강상,렌트 서브 리스 매매가능, 장사자신 있 는분,1500SF 렌트 3천불, 지하실 있음

최고의 위치 노던선상에 위치한 넓은파킹장 스페이스 렌트합니다. (타투 아이리쉬. 바디.맛사지 등)

646-239-8327(부)

718-320-1212

347-371-3872

-------------------------------------------------------------------------------------------------------------------------------------------------------------------------------------------------------------------------------------------------------

-------------------------------------------------------------------------------------------------------------------------------------------------------------------------------------------------------------------------------------------------------

-------------------------------------------------------------------------------------------------------------------------------------------------------------------------------------------------------------------------------------------------------

1BR 콘도 159St 43Ave 노던 기차역도보 주차, 세탁기, $1650 (부/리차드박)☎718-926-2030

Studio 150St Union Tpke 고층 아파트 8층 발코니 주차$50 $1300 (부/리차드박)☎718-926-2030

플러싱 35/파슨 깨끗한 엘리베이 터빌딩 2BR 발코니 마루 히팅포 함 $2100 ☎917-939-3940(부)

-------------------------------------------------------------------------------------------------------------------------------------------------------------------------------------------------------------------------------------------------------

-------------------------------------------------------------------------------------------------------------------------------------------------------------------------------------------------------------------------------------------------------

D 전철 1/2블럭 (25Ave) 파킹 히팅 포함 $1,800 ·브르클린 2층 3BR 13Ave 77St

-------------------------------------------------------------------------------------------------------------------------------------------------------------------------------------------------------------------------------------------------------

2BR 유토피아 43Ave 2층 노던도보 기차역도보 $1650 (부/리차드박)☎718-926-2030 -------------------------------------------------------------------------------------------------------------------------------------------------------------------------------------------------------------------------------------------------------

3BR2Bth 150St 41Ave 기차역 노던도보 주차/힛포함 $2300 (부/리차드박)☎718-926-2030 -------------------------------------------------------------------------------------------------------------------------------------------------------------------------------------------------------------------------------------------------------

1BR 2층 192St 42Ave 깨끗함 2베드로 사용가능 기차역/노던 도보 $1550 (부/리차드박)☎718-926-2030 -------------------------------------------------------------------------------------------------------------------------------------------------------------------------------------------------------------------------------------------------------

플러싱 2BR 150St 38Ave 2층 노던1블락/기차역도보 힛포함 $1900 (부/리차드박)☎718-926-2030 -------------------------------------------------------------------------------------------------------------------------------------------------------------------------------------------------------------------------------------------------------

플러싱 3BR 3Bath 1층+꾸민지 하 160St 41Ave 새집 주차2대/세 탁기 거주와 홈오피스 동시에 하 실분 적합 $3500 (부/리차드박)☎718-926-2030

3BR2Bth 1층 157가 43Ave 기차역/노던/H마트 도보 펫OK !! 주차1대 $2400 (부/리차드박)☎718-926-2030

플러싱 노던/메인 최고급 콘트리 트 빌딩, 마루/힛 포함. 넓은 1BR 발코니 $1850 2BR $2200 ☎917-939-3940(부)

-------------------------------------------------------------------------------------------------------------------------------------------------------------------------------------------------------------------------------------------------------

-----------------------------------------------------------------------------------------------------------------------------------------------------------------------------------------------------------------------------------------------------

플러싱아파트 1BR 1Bed 168가36Ave. 6층(Top) 히팅과온수 넓은침실기차역 노던2블럭$1650 www.withfinder.com ☎646-539-9197(부) ---------------------------------------------------------------------------------------------------------------------------------------------------------------------------------------------------------------------------------------------

플러싱 1BR 164St 36Ave 2층 기차역/노던도보 힛포함 $1550 (부/리차드박)☎718-926-2030 -------------------------------------------------------------------------------------------------------------------------------------------------------------------------------------------------------------------------------------------------------

플러싱 38/파슨 깨끗한 엘리베 이터 빌딩. 마루 히팅포함 넓은 스튜디오 새로 $1650 2BR $2050 ☎917-939-3940(부) ------------------------------------------------------------------------------------------------------------------------------------------------------------------------------------------------------------------------------------------------------

플러싱 43/159st 콘도1BR 발코니 파킹 세탁시설 포함 $1650 ☎917-939-3940(부)

플러싱 37/공영주차장 근처 최고급 아파트 마루 힛 포함 2BR $2250 ☎917-939-3940(부) -----------------------------------------------------------------------------------------------------------------------------------------------------------------------------------------------------------------------------------------------------

플러싱 노던 / 메인 최고급 빌딩 스튜디오 마루 히팅포함 $1600 ☎ 917-939-3940(부) -----------------------------------------------------------------------------------------------------------------------------------------------------------------------------------------------------------------------------------------------------

플러싱 34/유니온 고층 콘크리트 빌딩 발코니 마루 힛 포함 2BR $2200 3BR 2Bath 완전수리 $2600 ☎ 917-939-3940(부) -------------------------------------------------------------------------------------------------------------------------------------------------------------------------------------------------------------------------------------------------------

플러싱 37Ave 공영주차장 근처 소음없는 콘크리트빌딩 넓은 1BR 마루 히팅포함 발코니$1925 ☎917-939-3940(부)

347-952-5442 718-762-0011 플러싱 36 / 168St 깨끗한 엘리베이터 빌딩 기차역 도보거리 히팅포함 1BR $1600 1BR $1900 ☎917-939-3940(부) -------------------------------------------------------------------------------------------------------------------------------------------------------------------------------------------------------------------------------------------------------

플러싱141 ST/노던Blvd 한아름 바로앞 대형1BR아파트 수리된 부엌마루 히팅포함 $1750 ☎917-939-3940(부) 04/01-------------------------------------------------------------------------------------------------------------------------------------------------------------------------------------------------------------------1----Y---------------------09/31/1

플러싱 37 / 공영주차장 근처 최고급 빌딩 층간소음 없는 콘크 리트 바닥 2BR 2Bath 발코니 마 루 히팅 포함 $2450 ☎ 917-939-3940(부) 04/01-------------------------------------------------------------------------------------------------------------------------------------------------------------------------------------------------------------------1----Y---------------------09/31/1

메인스트릿 노던 고급 아파트 스 튜디오 발코니 힛포함 전기별도 $1675 사라(진선미 부) ☎646-662-1076 ☎718-737-2677

646-932-0908 파슨 38Ave 새컨디션 힛포함 전 기별도 $1625 사라(진선미 부) ☎646-662-1076 ☎718-737-2677 -------------------------------------------------------------------------------------------------------------------------------------------------------------------------------------------------------------------------------------------------------

파슨 35Ave 스튜디오 힛포함 전 기별도$1550 사라(진선미 부) ☎646-662-1076 ☎718-737-2677 -------------------------------------------------------------------------------------------------------------------------------------------------------------------------------------------------------------------------------------------------------

195가 40Ave 반지하 1BR1Bath 유틸포함 $1200 사라(진선미 부) ☎646-662-1076 ☎718-737-2677 ---------------------------------------------------------------------------------------------------------------------------------------------------------------------------------------------------------------------------------------------

유니온 34Ave 아파트 스튜디오 발코니 힛포함 전기별도 $1650 사라(진선미 부) ☎646-662-1076 ☎718-737-2677 -------------------------------------------------------------------------------------------------------------------------------------------------------------------------------------------------------------------------------------------------------

파슨 루즈벨트Ave 스튜디오 남 향 힛포함 전기별도 새 컨디션 강아지 가능^-^ $1450 사라(진선미 부) ☎646-662-1076 ☎718-737-2677

현대적인 스튜디오부터 편안한 독 채까지 이 없거나 나쁜 크레딧 상 관없이, 반려동물이 있든지, 원하 시는 집에 대한 조건만 알려주시 면 만족하실때까지 아니 그후까지 도 책임지고 최선을 다하겠습니다. (Mr한/부)☎646-283-1257

-------------------------------------------------------------------------------------------------------------------------------------------------------------------------------------------------------------------------------------------------------

-----------------------------------------------------------------------------------------------------------------------------------------------------------------------------------------------------------------------------------------------------

-------------------------------------------------------------------------------------------------------------------------------------------------------------------------------------------------------------------------------------------------------

-----------------------------------------------------------------------------------------------------------------------------------------------------------------------------------------------------------------------------------------------------

⧕ၵ௝ʑÕ⇶ ᱥʑ ༊ᙹ ᵲ⇶ ᅕᙹ॒ ᔢ⦹ᙹࠥ aᜅŖᔍ ⪵ᰆᝅ ᅕᯝ్ ᖙ໕‫ ݡ‬᫶ᝅ ᇡᨭ ᝒⓍ ݆✙ ⯩❦ ᜅ⥥ย⑉్ ⥭్ၮ᮹༉ुᖅ⊹

718-644-5071


B12

Tuesday, April 03, 2018

www.FindAllNY.com

반지하 렌트

L.I 힉스빌 렌트

160St 46Ave

195, 200, 206

200St, 155St

165St 45Ave

163 St 42Ave. 2BR

160St 46Ave 1Fl, 2BR 1Bath(힛포함) $1,900 맨해튼 2nd Ave 105 1Fl, 1BR 1Bath (힛포함, 2식구) $1,750

더글라스톤 42Ave 2F, 3bed, 1bath, $2,300 LIRR 2분내, 파킹1개 (힛, 빨래방포함)

201St 17Ave 2F 3bed 2bath $2,500, 리모델링 (힛포함 파킹 미포함)

2층 4BR 1Bath (힛포함, 모두새것)

반지하 렌트 $1400

힉스빌 조용한주택가 Exit 41S, 2BR 세탁기, 디시워시 차고 풀장, H-Mart, 한양 1층 2200 2층 1800 (주안직접)

347-398-1225(부)

646-575-3421

718-344-7968(부)

718-344-7968(부)

718-344-7968(부)

718-344-7968(부)

리틀넥 2BR 렌트

150가 노던 렌트

플러싱 APT렌트

플러싱 렌트

플러싱 1BR

플러싱 3BR

리들넥에서. 넓은 스튜디오. 렌트합니다 기차역 가깝고. 노던1블럭 11. 20. 21. 버스있음 힛포함. 1850불

150가 노던근처 새 연립주택 1층 3방 3욕실 $3.000 다이앤 정

좋은집 6BR 3Bath 3거실, 1부엌,3층,월렌트$4500,키 세나파크근처,Q27,2층,3BR 2Bath 월렌트$2300, 엘머스트 4BR,2.5Bath 월렌트 $3500 (영어문의)

플러싱 2BR 41/ 파슨아파트빌딩 마루 히팅 포함 스튜디오 $1450 2BR $1950

플러싱 35Ave 파슨 깨끗한 엘리베이터 빌딩 완전 수리한 대형 스튜디오 마루 히팅포함 발코니 $1650

3BR 1Bath 개인주택 2층 야외 Patio 내부 완전수리. 월 $2,500 학군좋음 PS 21& JHS 185(주인직접)

646-413-2633

718-640-4431(부)

718-888-3373

917-939-3940(부)

917-939-3940(부)

Studio 218St 64Ave 반지하 모두포함 $950 (부/리차드박)☎718-926-2030

2BR 216St 39Ave 1층 기차역도보 이지파킹 $1800 (부/리차드박)☎718-926-2030

-------------------------------------------------------------------------------------------------------------------------------------------------------------------------------------------------------------------------------------------------------

-------------------------------------------------------------------------------------------------------------------------------------------------------------------------------------------------------------------------------------------------------

2BR 202ST 45Ave 반지하 새시설 노던도보 모두포함 $1300 (부/리차드박)☎718-926-2030

3BR 1.5Bth 205St 43Ave 1층 수리 노던도보 $2100 (부/리차드박)☎718-926-2030

-----------------------------------------------------------------------------------------------------------------------------------------------------------------------------------------------------------------------------------------------------

Flushing near NY Presbyterain hospital Main ST. Small 1BR $1450 H+HW included. Credit + Background check OWNER (Message) ☎917-561-5196 --------------------------------------------------------------------------------------------------------------------------------------------------------------------------------------------------------------------------4/14/18----------------------

칼리지포인트 새집 3Bed 121가 8Ave. 바닥타일 전부포함 $1800 www.withfinder.com/사진보기 ☎646-539-9197(부/제임스킴) -------------------------------------------------------------------------------------------------------------------------------------------------------------------------------------------------------------------------------------------------------

칼리지포인트 3BR 2Bath 127St 6Ave. 2층 나무 전부새것 주차 편리 넓은거실 환하고 깨끗 www.withfinder.com/사진보기 (부/제임스킴)☎646-539-9197 -----------------------------------------------------------------------------------------------------------------------------------------------------------------------------------------------------------------------------------------------------

칼리지포인트 3BR 2Bath 123St Lax Ave 2층 나무 $2300 www.withfinder.com/사진보기 (부/제임스킴)☎646-539-9197 -----------------------------------------------------------------------------------------------------------------------------------------------------------------------------------------------------------------------------------------------------

칼리지포인트 3BR 2Bath 127가 6Ave.2층나무 주차아주편리새로개조 넓은거실과주방전부새것 바닷가와공원 $2100 www.withfinder.com/사진보기 ☎646-539-9197(부/제임스킴)

2BR 150St 20Rd 깨끗한 2베드 2층 모두포함 $2000 (부/리차드박)☎718-926-2030

-------------------------------------------------------------------------------------------------------------------------------------------------------------------------------------------------------------------------------------------------------

와잇스톤 3Bed 149가 17Ave. 2층나무히팅과온수 $2200 www.withfinder.com/사진보기 ☎646-539-9197(부/제임스킴) -------------------------------------------------------------------------------------------------------------------------------------------------------------------------------------------------------------------------------------------------------

와잇스톤 2BR 2층+넓게 꾸민 에틱 프랜시스/17Ave 수리 이지파킹 $2300 (부/리차드박)☎718-926-2030

와잇스톤 3Bed 2Bath 149가 15Ave.1,2층지하카펫, 가라지와 드라이브웨이별도 $2600 www.withfinder.com/사진보기 ☎646-539-9197(부/제임스킴)

-------------------------------------------------------------------------------------------------------------------------------------------------------------------------------------------------------------------------------------------------------

-------------------------------------------------------------------------------------------------------------------------------------------------------------------------------------------------------------------------------------------------------

-------------------------------------------------------------------------------------------------------------------------------------------------------------------------------------------------------------------------------------------------------

3BR2Bth 클린턴빌St 14Ave 가라지/주차/코인세탁기/ 힛포함 $2500 (부/리차드박)☎718-926-2030 -------------------------------------------------------------------------------------------------------------------------------------------------------------------------------------------------------------------------------------------------------

와잇스톤 3BR 2Bth 1층 154St 20Rd 새집 주차 $2500 (부/리차드박)☎718-926-2030 -------------------------------------------------------------------------------------------------------------------------------------------------------------------------------------------------------------------------------------------------------

와잇스톤 2BR 클린턴빌St 17Ave 1층 깨끗한마루 힛포함 $1800 (부/리차드박)☎718-926-2030 -------------------------------------------------------------------------------------------------------------------------------------------------------------------------------------------------------------------------------------------------------

와이스톤작은1Bed 147가 Ave. 1층나무주차편리 $1400 www.withfinder.com/사진보기 ☎646-539-9197(부/제임스킴)

와잇스톤 2Bed 166가 15Ave. 바닥타일전부포함 4월초 $1350 646-539-9197(부/제임스킴) www.withfinder.com/사진보기 ☎646-539-9197(부/제임스킴) -------------------------------------------------------------------------------------------------------------------------------------------------------------------------------------------------------------------------------------------------------

와잇스톤3Bed 149가17Ave. 2층나무히팅과온수주차편리 3월말입주, $2200 www.withfinder.com/사진보기 ☎646-539-9197(부/제임스킴) -------------------------------------------------------------------------------------------------------------------------------------------------------------------------------------------------------------------------------------------------------

와잇스톤 20Ave Parsons Blvd 아파트빌딩 넓은 스튜디오 마루 히팅포함 $1575 ☎917-939-3940(부) -----------------------------------------------------------------------------------------------------------------------------------------------------------------------------------------------------------------------------------------------------

-------------------------------------------------------------------------------------------------------------------------------------------------------------------------------------------------------------------------------------------------------

와잇스톤새집 2Bed 2Bath 150가 17Ave. 1층 나무주차편리$2200 www.withfinder.com/사진보기 ☎646-539-9197(부/제임스킴)

1BR 216St 35Ave 기차역도보 주차별도 힛 포함 $1400 (부/리차드박)☎718-926-2030

646-243-8178(En.)

917-560-8852

-------------------------------------------------------------------------------------------------------------------------------------------------------------------------------------------------------------------------------------------------------

-------------------------------------------------------------------------------------------------------------------------------------------------------------------------------------------------------------------------------------------------------

2BR2Bth 209St 45Dr 1층 새집 노던도보 $2100 (부/리차드박)☎718-926-2030 -------------------------------------------------------------------------------------------------------------------------------------------------------------------------------------------------------------------------------------------------------

2BR 2Bth 225St 69Ave 1층 새집 이지파킹 공원도 보 $2200 (부/리차드박)☎718-926-2030 -------------------------------------------------------------------------------------------------------------------------------------------------------------------------------------------------------------------------------------------------------

3BR 1Bth 218St 61Ave 3층 깨끗함 힛/주차포함 $2300 (부/리차드박)☎718-926-2030 -------------------------------------------------------------------------------------------------------------------------------------------------------------------------------------------------------------------------------------------------------

3BR 1Bth 200St 16Ave 1층 펫OK !! 힛/주차포 함 $2300 (부/리차드박)☎718-926-2030

-------------------------------------------------------------------------------------------------------------------------------------------------------------------------------------------------------------------------------------------------------

플러싱 43/159st 콘도1BR 발코니파킹세탁시설포함 $1650 ☎917-939-3940(부) -----------------------------------------------------------------------------------------------------------------------------------------------------------------------------------------------------------------------------------------------------

3BR 1Bth 218가 61Ave 2층 깨긋함 PS46도보 주 차/힛포함 $2300 (부/리차드박)☎718-926-2030 -------------------------------------------------------------------------------------------------------------------------------------------------------------------------------------------------------------------------------------------------------

2BR 2층 224가 64Ave 세탁기/ 건조기 PS213 $1900 (부/리차드박)☎718-926-2030

베이사이드 3BR 2Bath 206St 46Ave 2층 발코니 노던도보 주 차가능 $2300 (부/리차드박)☎718-926-2030 -------------------------------------------------------------------------------------------------------------------------------------------------------------------------------------------------------------------------------------------------------

217St 46Ave 노던/기차역도보 $2900 (부/리차드박)☎718-926-2030 -------------------------------------------------------------------------------------------------------------------------------------------------------------------------------------------------------------------------------------------------------

베이사이드 1BR 209St 15Ave 베이테라스 지역 힛포함 $1600 (부/리차드박)☎718-926-2030 -------------------------------------------------------------------------------------------------------------------------------------------------------------------------------------------------------------------------------------------------------

베이사이드 3BR 2Bath 218St 61Ave 2층 나무 히팅과 온수 전부새것 $2300 www.withfinder.com/사진보기 (부/제임스킴)☎646-539-9197 -------------------------------------------------------------------------------------------------------------------------------------------------------------------------------------------------------------------------------------------------------

-------------------------------------------------------------------------------------------------------------------------------------------------------------------------------------------------------------------------------------------------------

베이사이드 1BR 클린턴빌St 18Ave 새욕실 조용한지역 힛포함 $1600 (부/리차드박)☎718-926-2030 -------------------------------------------------------------------------------------------------------------------------------------------------------------------------------------------------------------------------------------------------------

3BR 2Bth 207St 47Ave 새컨디션 발코니 $2200 (부/리차드박)☎718-926-2030

베이사이드 3BR 1.5Bath 219St 61Ave 2층 PS46 MS74도보 주 차/힛포함 $2400 (부/리차드박)☎718-926-2030

-------------------------------------------------------------------------------------------------------------------------------------------------------------------------------------------------------------------------------------------------------

-------------------------------------------------------------------------------------------------------------------------------------------------------------------------------------------------------------------------------------------------------

2BR 218St 61Ave 반지하 모두포함 $1100 (부/리차드박)☎718-926-2030

베이사이드 3BR 2Bath 215St 43Ave 3층 수리 노던도보 주차/ 세탁기 $2400 (부/리차드박)☎718-926-2030

-------------------------------------------------------------------------------------------------------------------------------------------------------------------------------------------------------------------------------------------------------

-------------------------------------------------------------------------------------------------------------------------------------------------------------------------------------------------------------------------------------------------------

-------------------------------------------------------------------------------------------------------------------------------------------------------------------------------------------------------------------------------------------------------

232St 64Ave 1층 3BR 2Bath $2,500 (네고가능, 새집)

베이사이드 3BR 2Bath 232St 64Ave 1층 나무 $2200 www.withfinder.com/사진보기 (부/제임스킴)☎646-539-9197 -------------------------------------------------------------------------------------------------------------------------------------------------------------------------------------------------------------------------------------------------------

베이사이드 독채 3BR 2Bath 베이사이드1BR 아파트 216가77Ave. 4층나무히팅과온수 주차편리넓은거실과방 주차가능$1650 www.withfinder.com ☎646-539-9197(부) -------------------------------------------------------------------------------------------------------------------------------------------------------------------------------------------------------------------------------------------------------


www.FindAllNY.com

2018년 4월 03일 (화)

B13

칼리지포인트 2BR

베이사이드 1BR

플러싱1BR

플러싱1BR

와잇스톤1BR

와잇스톤 2BR

126가5Ave. 3층나무전부포함 주차편리 $1600 www.withfinder.com

216가77Ave. 4층나무히팅과온수 주차편리 $1650 www.withfinder.com

162가36Ave. 6층나무히팅과온수 기차역노던2.5블럭 $1600 www.withfinder.com

노던과파슨 4층나무히팅과온수 전철및기차역 $1750 www.withfinder.com

147가19Ave. 새집 1층나무 주차편리 $1400 www.withfinder.com

150가 21Ave. 2층나무전부포함 주차편리 $1860 www.withfinder.com

646-539-9197(부)

646-539-9197(부)

646-539-9197(부)

646-539-9197(부)

646-539-9197(부)

646-539-9197(부)

플러싱 39 렌트

플러싱 149 렌트

3BR 1Bath

3BR 1Bath

와잇스톤 렌트

159St 45Ave

112-45 39th Ave 2BR 1Full Bath 키친,나무바닥,타 일, 파킹,내고가능, 7전철버 스 2블락거리, 10분거리 스 카이뷰몰, 헨리(영어문의)

플러싱 149-06 노던 새로 지은 빌딩 Full 2BR 2Bath $2500, 워시머신, 스토브 모두 새것으로 완비

150 St 35Ave 3BR 2bath 새로 꾸민 brand new 발코니 $2500

240 St 68Ave. 3BR 1bath 힛, 차고, 런드리, 스토리지 룸 $2400

15Ave 파슨스 Blvd 1Fam 1층 차고/2층 주방,다이 닝,거실,0.5Bath/3층 3BR 1Bath 대지40X109 부동산 세 $6,000 매매가 $838K

159St 45Ave 1Fl, 2.5BR 1Bath

347-794-5810(부)

917-626-4260(부)

347-398-1225(부)

347-398-1225(부)

646-622-1076(부)

파슨 38Ave 2BR 1Bath 힛포함 전기별도 $2100 사라(진선미 부) ☎646-662-1076 ☎718-737-2677

1158가 41Ave 3층 3BR 2Bath 발코니 유틸별도 $2200 사라(진선미 부) ☎646-662-1076 ☎718-737-2677

-------------------------------------------------------------------------------------------------------------------------------------------------------------------------------------------------------------------------------------------------------

-------------------------------------------------------------------------------------------------------------------------------------------------------------------------------------------------------------------------------------------------------

파슨 35Ave 2BR 1Bath 힛포함 전기별도 $2200 사라(진선미 부) ☎646-662-1076 ☎718-737-2677

14가 26Ave 2층 3BR 1.5Bath 힛포함 전기별도 $2250 사라(진선미 부) ☎646-662-1076 ☎718-737-2677

---

-------------------------------------------------------------------------------------------------------------------------------------------------------------------------------------------------------------------------------------------------------

-------------------------------------------------------------------------------------------------------------------------------------------------------------------------------------------------------------------------------------------------------

-------------------------------------------------------------------------------------------------------------------------------------------------------------------------------------------------------------------------------------------------------

유니온 34Ave 2.5BR 2Bath $2550 사라(진선미 부) ☎646-662-1076 ☎718-737-2677

160가 45Ave 2층 4BR2Bath 힛포함 전기별도 $2880 사라(진선미 부) ☎646-662-1076 ☎718-737-2677

-------------------------------------------------------------------------------------------------------------------------------------------------------------------------------------------------------------------------------------------------------

-------------------------------------------------------------------------------------------------------------------------------------------------------------------------------------------------------------------------------------------------------

유니온 34Ave 2BR 1Bath 힛포 함 전기별도 $2250 사라(진선미 부) ☎646-662-1076 ☎718-737-2677

157가 42Ave 2충 3BR1.5Bath 파킹포함 $2300 사라(진선미 부) ☎646-662-1076 ☎718-737-2677

-------------------------------------------------------------------------------------------------------------------------------------------------------------------------------------------------------------------------------------------------------

-------------------------------------------------------------------------------------------------------------------------------------------------------------------------------------------------------------------------------------------------------

유니온 34Ave 2BR2Bath 힛포 함 전기별도 $2350 사라(진선미 부) ☎646-662-1076 ☎718-737-2677

파슨 35Ave 1층 1BR1Bath 힛포함 전기별도 $1800 사라(진선미 부) ☎646-662-1076 ☎718-737-2677

-------------------------------------------------------------------------------------------------------------------------------------------------------------------------------------------------------------------------------------------------------

-------------------------------------------------------------------------------------------------------------------------------------------------------------------------------------------------------------------------------------------------------

-----------------------------------------------------------------------------------------------------------------------------------------------------------------------------------------------------------------------------------------------------

(전기, 모두포함) $2,200 201St 17Ave 3BR 2Bath 깨끗 $2,500 / 베이테라스 3BR 2Bath, 가라지 $2,300

718-344-7968(부) -------------------------------------------------------------------------------------------------------------------------------------------------------------------------------------------------------------------------------------------------------

-----------------------------------------------------------------------------------------------------------------------------------------------------------------------------------------------------------------------------------------------------

베이사이드 3BR 2Bath 231St 61Ave 1층 나무 $2300 www.withfinder.com/사진보기 (부/제임스킴)☎646-539-9197

-

-------------------------------------------------------------------------------------------------------------------------------------------------------------------------------------------------------------------------------------------------------

베이사이드 2BR 1층 229St 64Ave 완전수리 중앙냉방 펫 OK PS213/공원도보 $2000 (부/리차드박)☎718-926-2030 -------------------------------------------------------------------------------------------------------------------------------------------------------------------------------------------------------------------------------------------------------

베이사이드 아파트 1BR 216St 77Ave 4층 나무 히팅과 온수 주차가능 www.withfinder.com/사진보기 (부/제임스킴)☎646-539-9197 -------------------------------------------------------------------------------------------------------------------------------------------------------------------------------------------------------------------------------------------------------

베이사이드 3BR 2Bath 61Ave Bell Blvd. 2층나무세탁기$2300 www.withfinder.com/사진보기 (부/제임스킴)☎646-539-9197 -------------------------------------------------------------------------------------------------------------------------------------------------------------------------------------------------------------------------------------------------------

베이사이드 77Ave 216St 엘리베이터 빌딩 1BR 히팅포함 $1650 ☎917-939-3940(부) -----------------------------------------------------------------------------------------------------------------------------------------------------------------------------------------------------------------------------------------------------

베이사이드16Ave Bell Blvd 패밀리하우스 2층 히팅포함 시설 $2300 ☎917-939-3940(부) -----------------------------------------------------------------------------------------------------------------------------------------------------------------------------------------------------------------------------------------------------

베이사이드 23Ave 211St 패밀리하우스 3BR 2Bath 마루 파킹포함 $2300 ☎917-939-3940(부)

베이사이드 18/벨 Blvd 깨끗한 엘리베이터빌딩 완전수리 발코 니 마루 힛 포함 스튜디오 $1750 1BR $2000 2BR $2300 넓은 2BR 1.5Bath $2400 ☎917-939-3940(부)

95St 40Ave 새집 1층 3BR 2Bath+지하 세탁시설 완비 유틸 별도 $2800 사라(진선미 부) ☎646-662-1076 ☎718-737-2677 -------------------------------------------------------------------------------------------------------------------------------------------------------------------------------------------------------------------------------------------------------

-----------------------------------------------------------------------------------------------------------------------------------------------------------------------------------------------------------------------------------------------------

파슨 블러바드 38Ave 1BR 1Bath 힛포함 전기별도 $1850 사라(진선미 부) ☎646-662-1076 ☎718-737-2677 -------------------------------------------------------------------------------------------------------------------------------------------------------------------------------------------------------------------------------------------------------

유니온 37Ave 새콘도 첫입주 1BR 1Bath 유틸 별도 $2000 사라(진선미 부) ☎646-662-1076 ☎718-737-2677 -------------------------------------------------------------------------------------------------------------------------------------------------------------------------------------------------------------------------------------------------------

스프링필드 3BR1Bath 힛별도$2200 사라(진선미 부) ☎646-662-1076 ☎718-737-2677 -------------------------------------------------------------------------------------------------------------------------------------------------------------------------------------------------------------------------------------------------------

161가 46Ave 2층 2BR 1Bath(3BR로도 사용 가능) 힛별도 $1650 사라(진선미 부) ☎646-662-1076 ☎718-737-2677 ------------------------------------------------------------------------------------------------------------------------------------------------------------------------------------------------------------------------------------------------------

베이사이드 반지하 1BR 1Bath 전기별도 $1350 사라(진선미 부) ☎646-662-1076 ☎718-737-2677

유니온 34Ave 고급 아파트 1BR 1Bath 힛포함 전기별도 $1900 사라(진선미 부) ☎646-662-1076 ☎718-737-2677 -------------------------------------------------------------------------------------------------------------------------------------------------------------------------------------------------------------------------------------------------------

유니온 32Ave 1BR 1Bath 힛포함 전기별도 $1800 사라(진선미 부) ☎646-662-1076 ☎718-737-2677 ---------------------------------------------------------------------------------------------------------------------------------------------------------------------------------------------------------------------------------------------------

파슨 블러바드 35Ave 1BR 1Bath 힛포함 전기별도 $1900 사라(진선미 부) ☎646-662-1076 ☎718-737-2677 -----------------------------------------------------------------------------------------------------------------------------------------------------------------------------------------------------------------------------------------------------

프렌시스루이스 블러바드 26Ave 워크인 2BR 1Bath 전기별도 $1500 사라(진선미 부) ☎646-662-1076 ☎718-737-2677 -------------------------------------------------------------------------------------------------------------------------------------------------------------------------------------------------------------------------------------------------------

프레시메도우 2BR 170St 61Ave 3층 깨끗함 코 인 세탁기 26학군 힛포함 $1650 (부/리차드박)☎718-926-2030 ----------------------------------------------------------------------------------------------------------------------------------------------------------------------------------------------------------------------------------------------------

메인 스트릿 노던 블러바드 고급 아파트 힛포함 전기별도 $1950 사라(진선미 부) ☎646-662-1076 ☎718-737-2677 -------------------------------------------------------------------------------------------------------------------------------------------------------------------------------------------------------------------------------------------------------

1.3BR 2Bth 마라톤Pky 42Ave 1층+꾸민지하 가라지 주차 세탁 기 $2800 (부/리차드박)☎718-926-2030

리틀넥 69Ave 3BR 2Bath 힛포 $2650 사라(진선미 부) ☎646-662-1076 ☎718-737-2677

리틀넥 3BR 2Bath 248St 1층 또는 2층 나무 주차1대 세탁기 $2600 www.withfinder.com/사진보기 (부/제임스킴)☎646-539-9197 -------------------------------------------------------------------------------------------------------------------------------------------------------------------------------------------------------------------------------------------------------

2BR 170St 61Ave 3층 깨끗함 코인 세탁기 26학군 힛포함 $1650 (부/리차드박)☎718-926-2030 -------------------------------------------------------------------------------------------------------------------------------------------------------------------------------------------------------------------------------------------------------

독채까지 크레딧이 없거나 나쁜 크레딧 상관없이, 반려동물이 있 든지, 원하시는 집에 대한 조건만 알려주시면 만족하실때까지 아 니 그후까지도 책임지고 최선을 다하겠습니다. (Mr한/부)☎646-283-1257 -------------------------------------------------------------------------------------------------------------------------------------------------------------------------------------------------------------------------------------------------------


B14

Tuesday, April 03, 2018

www.FindAllNY.com


www.FindAllNY.com

프레쉬메도우 3BR 2Bath 183St 58Ave. 2층과 3층 나무 3년 $2500 www.withfinder.com/사진보기 (부/제임스킴)☎646-539-9197

더글라스톤 44 / 더글라스톤 파 크웨이 깨끗한 엘리베이터 빌딩 마루 힛 포함 기차역도보 대형 1BR $2000, 2BR $2350 ☎917-939-3940(부)

-------------------------------------------------------------------------------------------------------------------------------------------------------------------------------------------------------------------------------------------------------

-------------------------------------------------------------------------------------------------------------------------------------------------------------------------------------------------------------------------------------------------------

프레쉬메도우 3BR 2Bath 158St 77Ave 2층 나무 $3000 www.withfinder.com/사진보기 (부/제임스킴)☎646-539-9197

더글라스톤68Ave 240 Street3br2bath마루 히팅포 함워셔/드라이어 파킹 가라지포 함 $2450 ☎917-939-3940(부)

2018년 4월 03일 (화)

세탁소 매매

세탁소 급매

세탁소건물 급매

큐가든 2BR 매매

세탁경험 있으시고 부부가 함께 하실수있는분 저렴한 가격에 드립니다

2020년 대비, 맨하탄에서 규제안 받는 퀸즈 세탁공장 찾는 분. 주 6일오픈, 26년 된 가게. 가격 11만 8천불 (연매상: 26만불)

메사츄세스 주 옆 상가 건물에서 $700 렌트 수입 건물포함 33만불

메인 1블럭 2층 주디어 2BR

-----------------------------------------------------------------------------------------------------------------------------------------------------------------------------------------------------------------------------------------------------

더글라스톤 새집 2BR 마라톤 60Ave 바닥 타일 전부포함 $1450 www.withfinder.com/사진보기 (부/제임스킴)☎646-539-9197 -------------------------------------------------------------------------------------------------------------------------------------------------------------------------------------------------------------------------------------------------------

플러싱41/파슨깨끗한 엘리베이 터빌딩마루히팅포함 넓은스튜디 오$1450 2br $1950 ☎917-939-3940(부) ----------------------------------------------------------------------------------------------------------------------------------------------------------------------------------------------------------------------------------------------------

더글라스톤 3BR 2Bath 힛 포함 런드리, 가라지, 지하일부 $2450 ☎347-398-1225(부) -------------------------------------------------------------------------------------------------------------------------------------------------------------------------------------------------------------------------------------------------------

3BR2Bth 240St 68Ave 2층 1200SF 펫OK!! MS67 주차/힛포함 $2400 (부/리차드박)☎718-926-2030 -------------------------------------------------------------------------------------------------------------------------------------------------------------------------------------------------------------------------------------------------------

주인 직접 더글라스톤 최고학군 3BR2BH파킹&힛&쿳개스포함 $2400 2BR 파킹& 힛포함 $2000

관리비 $746 매매가 18만불

347-677-4351

917-436-6944(부)

413-592-2200(D) 413-335-4936(N)

대형 슈퍼마켓

맨하탄 콘도 급매

오픈 하우스

베이글 가게 매매

브롱스 5000SF+Full지하 렌트 $8000 연매상 $2.2M 발전가능성 가$59만+스탁

408 8th Ave Pensation 근처 FIT 와 코리아타운

멘하탄(30년된 성업중인 가게)

근처 $970,000 1.5BR living room, 2balcony

8월 19~20일 3-5pm 45-12 163가 Zone: R4 Lot: 31×100 1패밀리 부동 산세 $6900 매매가 :$850k 지금 바로 전화주세요

년매상 $ 110만불 주인 은퇴관계로.

718-926-2030(부)

347-348-8790(부)

646-477-0747(부)

973-525-7070

3BR 힛포함 $1450(반지하) 마루 버스 공원 슈퍼 몰 도보거리 강아지 OK 최고 26학군 국교 집앞 픽업 ☎718-406-5997

빌딩매매 플러싱 162St Mixed Use 4 테넌트, 연순소득 $116700 9년된 건물 가 $2.9M (부/리차드박)☎718-926-2030

--2/3/18------------------------------------------------------------------------------------------------------------------------------------------------------------------------------------------------------------------------------------------2/27/18-

-------------------------------------------------------------------------------------------------------------------------------------------------------------------------------------------------------------------------------------------------------

B15

어번데일 2패밀리 콜로니얼 벽돌 LOT 27*95 5BR 3Bath 꾸민지하 택스 $8130 가 $1.28M (부/리차드박)☎718-926-2030 -------------------------------------------------------------------------------------------------------------------------------------------------------------------------------------------------------------------------------------------------------

리틀넥 1패밀리 하이랜치 LOT 55*129 4BR 2.5Bath 꾸민지하 택스 $7600 가$1.18M (부/리차드박)☎718-926-2030 -------------------------------------------------------------------------------------------------------------------------------------------------------------------------------------------------------------------------------------------------------

베이사이드 1패밀리 하이랜치 LOT 56*100 3BR 3Bath 꾸민지하 가라지 택스 $8190 가 $1.03M (부/리차드박)☎718-926-2030 -------------------------------------------------------------------------------------------------------------------------------------------------------------------------------------------------------------------------------------------------------

-------------------------------------------------------------------------------------------------------------------------------------------------------------------------------------------------------------------------------------------------------

1패밀리 북플러싱 랜치 하우스 벽돌집 좋은위치 꾸민지하 최근수리 가라지 가 $99만 (부/리차드박)☎718-926-2030 -------------------------------------------------------------------------------------------------------------------------------------------------------------------------------------------------------------------------------------------------------

빌딩 코로나 4패밀리 12 유닛 6주차 2008년 건축 25년 택스 감면 년수익 $17만8천 가 $3.49M (부/리차드박)☎718-926-2030

646-662-1076(부)

-------------------------------------------------------------------------------------------------------------------------------------------------------------------------------------------------------------------------------------------------------

-------------------------------------------------------------------------------------------------------------------------------------------------------------------------------------------------------------------------------------------------------

리틀넥 1패밀리 20*96 택스 $5300 좋은위치 기차역/노던도 보 가$70만 (부/리차드박)☎718-926-2030

빌딩 베이사이드 LOT 48*144 8년된 건물 / 7 테넌트 년순소득 $33만 가 $6.4M (부/리차드박)☎718-926-2030

-------------------------------------------------------------------------------------------------------------------------------------------------------------------------------------------------------------------------------------------------------

베이사이드 2패밀리 콜로니얼 벽 돌 LOT 20*88 5BR 2Bath 꾸민 지하 택스$7270 가$1.19M (부/리차드박)☎718-926-2030 ------------------------------------------------------------------------------------------------------------------------------------------------------------------------------------------------------------------------------------------------------

2패밀리 베이사이드 LOT 40*100 벽돌 5베드2.5베쓰 택스 $7,230 꾸민지하 가$1.28M (부/리차드박)☎718-926-2030

-------------------------------------------------------------------------------------------------------------------------------------------------------------------------------------------------------------------------------------------------------

-------------------------------------------------------------------------------------------------------------------------------------------------------------------------------------------------------------------------------------------------------

뉴하이드팍 1패밀리 케이프 LOT 40*100 3BR 1Bath 꾸민지하 택 스 $9870 가 $469K (부/리차드박)☎718-926-2030

플러싱 2패밀리 콜로니얼 벽돌 LOT 25*110 4BR 3Bath 꾸민지 하 가라지 택스 $7395 가$1.2M (부/리차드박)☎718-926-2030

-------------------------------------------------------------------------------------------------------------------------------------------------------------------------------------------------------------------------------------------------------

-------------------------------------------------------------------------------------------------------------------------------------------------------------------------------------------------------------------------------------------------------

리틀넥 1패밀리 하이 랜치 마더 & 도우터 4BR 2Bath 2Kitchen LOT 40*100 빌딩 26*46 벽돌 가$1.09M (부/리차드박)☎718-926-2030

1패밀리 롱아일랜드 뉴하이드 팍 콜로니얼 단독 75*100 3BR 2.5Bath 꾸민지하 2008년 리모델 택스 $11640 가 $84만 (부/리차드박)☎718-926-2030

-------------------------------------------------------------------------------------------------------------------------------------------------------------------------------------------------------------------------------------------------------

빌딩 Mixed Use 브룩클린 1스토어 / 2아파트 순소득 $100,459 가$2.49M (부/리차드박)☎718-926-2030 -------------------------------------------------------------------------------------------------------------------------------------------------------------------------------------------------------------------------------------------------------

플러싱 1BR 콘도, 139-76 35 Ave 고층에 위치.남향 대형발 코니 세탁시설 $489,000 월유지비:$252 세금:$3700 ☎917-939-3940(부) -----------------------------------------------------------------------------------------------------------------------------------------------------------------------------------------------------------------------------------------------------

그레잇넥 기차역근처 1BR 코압인터뷰없음. 1br코압넓은사 이즈 월 유지비:$831 가격 $259,000 ☎917-939-3940(부) ----------------------------------------------------------------------------------------------------------------------------------------------------------------------------------------------------------------------------------------------------

네일 헤어 매매

네일가게 매매

C/O 갖춘스파 매매

네일스파 매매

노던 1BR 149가

새 빌딩 매매

롱아일랜드 노스 Exit 52 렌트 $2500 부동산세 포함 리스5년 매매가격 9만5천 네일 헤어 기술자구함 (자가운전자 한함)

새로 레노베이션한 1,750SF P8/ M8/ 마사지 2/ 왁싱 1 주6일 오픈 매매가 13만불 (부/데보라정)

미드타운 매우 바쁜 지역 방9개 + 테이블 샤워2개 +사우나 약 2500SF 렌트 $6500 (물값포함)

퀸즈빌리지기차역앞 주매상$8500불 렌트비 $3700 10년된 새로꾸민가게 번화가지역 www.withfinder.com/사진

149가 노던 1BR (스튜디오 싸이즈) 관리비$450 매매가 $19만 8천

베이사이드 LOT 48*144 8년된 건물 7 테넌트 년순소득 $33만 가$6.4M

646-284-1323

917-436-6944(부)

917-678-7927(부)

646-539-9197(부)

646-662-1076 718-737-2677(부)

718-926-2030(부)


B16

Tuesday, April 03, 2018

www.FindAllNY.com

LI 네일가게 매매

델리 매매

그로서리 매매

맨하탄 한식당

롱아일랜드 벨모아 주인 은퇴로 백인지역 바쁜가게 900 SF M ;4 P;4 $3,5000

브르크린 델리그로서리 매매/ 귀국관계로 급매 로토가 렌트비와 전기세 커 버/ 렌트비 :$2500/리스 7년/ 부부운영 적합

브루클린 가게 주인은퇴 40년 된 식품점. 특화된 품목 높은 마진 안정된 매상 적은 인원으로 운영가능 (융자가능)

다운타운 바쁜위치 렌트 $6680 연매상 $50만 무경쟁지역 가$26만

917-803-5141

718-951-6883

917-696-7843

718-926-2030(부)

여자옷 가게 매매

플러싱 독채 렌트

1,2 패밀리 조닝

마사지 가게 매매

7 트레인 종점 플러싱루즈벨트 교통편리 가격 2만 7천

3BR 1.5Bath 듀플렉스 기차역 가까운 노던 반블럭 지하(방 1) ,차고, 드라이브 웨이 포함. 세탁기(물세포함) 백야드 사용가능 $3,000

베이사이드 LOT 18*100 Tax $5920 타운하우스 최고위치 가$89만

아스토리아에 위치한 룸3개 테이블샤워 대기실3개 주방 창고 (꼭 사실분만 연락 바람 )

646-269-1955

917-436-6944(부)

718-926-2030(부)

917-609-2525

롱아일랜드밸리스트림 수리된벽돌 케잎하우스40x100 4br 2bath 꾸민지하 차고 기차역 도보거리 $499,000 ☎917-939-3940(부) -----------------------------------------------------------------------------------------------------------------------------------------------------------------------------------------------------------------------------------------------------

플러싱 콘도 노던 147St 35Ave 10층 완전 큰 2BR 1.5Bath 새 마루 새 세탁시설 큰 발코니 동향 관리비 $645(힛, 물포함) 부동산세$5700 매매가$66만8천 사라(진선미 부) ☎646-662-1076 ☎718-737-2677 -------------------------------------------------------------------------------------------------------------------------------------------------------------------------------------------------------------------------------------------------------

149St 노던 1BR 스튜디오사이즈 관리비 $450 매매가 $19만 8천 사라(진선미 부) ☎646-662-1076 ☎718-737-2677 -------------------------------------------------------------------------------------------------------------------------------------------------------------------------------------------------------------------------------------------------------

플러싱 163가 45Ave lot:31×100, build:20×35 ,zone:R4 부동산세 :$6901, 매매가$85만 사라(진선미 부) ☎646-662-1076 ☎718-737-2677

업스테잇뉴욕 아주 좋은 동네 렌트 1200불 1800SF 손발50불, 손6 발7 룸3, 부부 이사하셔서 하 시면 대박, 가격 4만5천불, 맨하 탄 업타운 이스트 렌트 $2000 손 발 35불 450SF, 가격 $3만5천 +S디파짓 ☎718-309-7161(부) -----------------------------------------------------------------------------------------------------------------------------------------------------------------------------------------------------------------------------------------------------

더글라스톤 네일매매 1700SF 8M 8P 3R 새컨디션. 렌트 $2500 가 $12만 (부/리차드박)☎718-926-2030 -------------------------------------------------------------------------------------------------------------------------------------------------------------------------------------------------------------------------------------------------------

롱아일랜드 네일 급매 850SF 30분거리 손발 $30 새시설 렌트 $2500 급매가 $2만8천+디파짓 (부/리차드박)☎718-926-2030 -------------------------------------------------------------------------------------------------------------------------------------------------------------------------------------------------------------------------------------------------------

롱아일랜드네일 1700SF 연매상 $40만 렌트 $3500 가 $19만 (부/리차드박)☎718-926-2030

-------------------------------------------------------------------------------------------------------------------------------------------------------------------------------------------------------------------------------------------------------

-------------------------------------------------------------------------------------------------------------------------------------------------------------------------------------------------------------------------------------------------------

Manhasset 42 Central DR New 5BR 5Bath $3,780,000 Isaac Zarabi ☎516-902-4466

커네티컷 고급동네 1200SF 연매 상 $42만 렌트 $6000 가$20만 (부/리차드박)☎718-926-2030

--2/20/18---------------------------------------------------------------------------------------------------------------------------------------------------------------------------------------------------------------------------------------3/20/18---

-------------------------------------------------------------------------------------------------------------------------------------------------------------------------------------------------------------------------------------------------------

플러싱 네일매매 가까운 플러싱 환기시설 완비. 저렴한 렌트가 $6만 (부/리차드박)☎718-926-2030 ------------------------------------------------------------------------------------------------------------------------------------------------------------------------------------------------------------------------------------------------------

롱아일랜드 5M 5P 2R 렌트 $2600 손발 $29/주차좋음 사정 상 급매가 $35000+디파짓 (부/리차드박)☎718-926-2030 ----------------------------------------------------------------------------------------------------------------------------------------------------------------------------------------------------------------------------------------------------

롱아일랜드 1400Sf 렌트 $3100 년매상 $40만 손발 $26 가 $18만 (부/리차드박)☎718-926-2030 -------------------------------------------------------------------------------------------------------------------------------------------------------------------------------------------------------------------------------------------------------

롱아일랜드 네일 2000SF 렌트 $3900 손발 $28 년매상 $47만 가 $22만 (부/리차드박)☎718-926-2030 -------------------------------------------------------------------------------------------------------------------------------------------------------------------------------------------------------------------------------------------------------

롱아일랜드 몰 2500SF 년매상 $50만 손발 $37 렌트 $4900 알찬수익 가$22만 (부/리차드박)☎718-926-2030

플러싱 좋은 위치 남향 1층 미용실 부담없는 렌트 $1100 물세 없음 리스 7년 파킹 많음 화장실 안에 ,있음 세탁기 있음 귀국관계로 매매. 매매가 $5만 ☎718-600-8571 ----3/3/18--------------------------------------------------------------------------------------------------------------------------------------------------------------------------------------------------------------------------------------4/21/18-

그로서리 맨하탄 1000Sf+지하 최고위치 발전가능성 많음. 주매상$12000 가$15만(스탁포함) (부/리차드박)☎718-926-2030

--

-------------------------------------------------------------------------------------------------------------------------------------------------------------------------------------------------------------------------------------------------------

델리/핫푸드 롱아일랜드 3000Sf 연매상 $54만 렌트 $3900 가$30만 (부/리차드박)☎718-926-2030 -------------------------------------------------------------------------------------------------------------------------------------------------------------------------------------------------------------------------------------------------------

-------------------------------------------------------------------------------------------------------------------------------------------------------------------------------------------------------------------------------------------------------

가까운 롱아일랜드 1400Sf 렌트 $2800 년매상 $20만가 $10만 (부/리차드박)☎718-926-2030 ---

-------------------------------------------------------------------------------------------------------------------------------------------------------------------------------------------------------------------------------------------------------

클리너 드럽스토어 맨하탄 업타운 이스트 고급동네. 연매상 $20만 렌트 $3086 6일 오픈 가$13만 (부/리차드박)☎718-926-2030

미용실 렌트매매

철공 목수 중고 공구

헤어, 스킨, 눈썹 할수있는 아담한 2층미용실

철공목수 중고공구 싸게 팝니다 (핸마드릴 발전기 용접기 산 소 개스 절단기 등)

렌트나 매매원함 플러싱 유니온

718-539-3939

631-351-4967


www.FindAllNY.com

2018년 4월 03일 (화)

돈 벌고, 적적함 달래고…5,60대 몰리는 한국의 '시니어 민박' 한국 숙소 호스트 19% 50대 이상…인생 상담 등 '콘셉트 민박' 늘어 은퇴를 앞둔 베이비붐 세대 사이에 서 퇴직 후 일거리로 공유 민박의 인기 가 뜨겁다. 공유 민박 정보를 주고받 는 커뮤니티에선 '퇴직 후 치킨집 차릴 바에 민박집 하는 게 낫다'는 얘기가 자주 나온다. 숙박공유 업체 에어비앤 비코리아 관계자는 "올해 1월 기준 에 어비앤비에 등록된 국내 숙소는 약 3 만7100개로, 전체 호스트(민박 주인) 중 50대 이상이 19%가량"이라며 "이 비율은 작년보다 56% 늘어난 수치이 며 계속 가파르게 늘고 있다"고 했다. 강원 평창군 한 전원주택에 사는 이

우(61)씨는 집 일부를 공유 민박으로 내놓기 위해 안방을 별채로 옮겼다. 115㎡(약 35평)짜리 본채를 여행객들 에게 내주고 있다. 이씨는 "정년퇴직 을 앞두고 용돈 벌이 정도로 생각하고 공유 민박을 시작했는데 예상보다 수 익이 괜찮았다"며 "아내와 함께 시간 을 보내며 돈도 벌고 여행객과 얘기하 며 전원생활의 적적함도 달랠 수 있어 일석이조"라고 했다. 이씨 부부가 공 유 민박으로 버는 수익은 월평균 200 만원으로 은퇴 후 생활비로 부족하지 않다고 한다.

공유 민박은 자신의 집을 활용하기 때문에 초기 자본금이 적게 들고, 별 다른 광고 없이 숙박 공유 업체에 등록 하면 숙박객을 모을 수 있다. 숙박 공 유 업체는 매출의 3%를 수수료로 떼 어간다. 물론 무턱대고 도전했다가 실 패한 사람들도 많다. 부산 수영구 한 60평대 아파트에 사는 주혜경(55)씨는 작년 공유 민박을 시작했다. 그는 "부 부싸움을 할 때도 숙박객 눈치가 보여 입만 벙긋벙긋 거리고 화장실 가기도 부담스러웠다"며 "외국인과 한집에서 지내는 것도 쉬운 일이 아니었다"고

말했다. 주씨는 "공유 민박을 하는 사 람은 느는데 중국인 관광객은 급감해 월 수익이 30만~40만원 정도밖에 되 지 않았다"고 덧붙였다. 주씨는 현재 공유 민박을 하지 않고 있다. 공유 민박 간 경쟁이 심해지자 단순 히 방을 주고 식사를 제공하는 수준이 었던 서비스가 진화하고 있다. 소설책 그득한 집에 사는 은퇴 작가가 젊은 여 행객에게 인생 상담을 해준다든지, 은 퇴한 한복 디자이너가 집에 전시된 한 복을 구경시켜주는 등 호스트의 장기 를 살리는 '콘셉트 민박'이 많아지고

B17

있는 것이다. 은퇴 후 제주도에 사는 김종우(62)씨는 "아내가 취미로 공부 하고 모았던 홍차를 콘셉트로 한 '홍 차룸'을 만들어 민박을 홍보하고 있 다"며 "동양의 차 문화를 신기해하는 외국인 관광객들에게 인기"라고 했다. 강원 태백시에서 공유 민박을 하는 전 강원관광대 교수 김권식(57)씨는 "호텔이나 리조트보다 시설이 빈약하 기 때문에 호스트가 제공하는 정보와 문화적 감성이 성패를 결정한다"며 " 여행객들이 숙박 후 좋은 평가를 남겨 야 안정적인 수익을 낼 수 있다"고 말 했다.

<8> $1,000,000 연체가 $100 연체 보다 (크레딧에 미치는)악영향이 크지않다? 크레딧 교정A~Z

Question: 장기 한국 출장을 수개월 다녀오느라 얼마되지 않는 카드 대금을 5개월째 이 상 내지 못했습니다. $450 정 도. 금액도 크지 않은데, 크레 딧에는 별 문제 없겠죠? Answer: 흔히 적은 금액은 연체상태가 되어 콜렉션(또는 Charge off)으로 넘어가도 크

레딧에는 별 문제가 되지 않을 것으로 인식하기 쉽습니다. 실 제로는 어떨까요? 크레딧 점 수를 산정하는 시스템은 금액 에는 별로 가중치를 두지 않습 니다. $100 이나 $100,000이나 연체가 되어 문제가 발생하면 크레딧에 damage를 주는 정 도는 사실상 차이가 없다고 보

면 됩니다. 금액보다는 문제가 된 케이 스가 얼마나 최근에 발생한 것 이냐가 더 크게 크레딧 점수에 영향을 미칩니다. 최근 2년내 에 발생한 (부정적인)케이스 일수록 damage가 더 크게 나 타납니다. 이분은 크레딧 리포 트를 체크해보면 몇백불을 연 체한 대가로 크레딧 점수가 최 소 30~70점 정도는 하락한 것 을 확인할 수 있을 것입니다. 만일 $1,000,000을 연체해서 콜 렉션상태가 되었어도 같은 결 과가 나왔을 것입니다. 크레딧카드 이외의 은행 Loan에도 같은 기준이 그대 로 적용됩니다. $100을 연체 하건 $10,000 또는 $1,000,000 을 제 때 내지 않던 크레딧 점 수는 (다른 조건들이 같다면)

같은 damage를 입게 되는 것 입니다. 이렇게 문제가 발생한 케이 스는 그 금액에 관계없이 이 를 교정하는 데도 같은 비용과 노력이 들어갑니다. 더 흥미 로운 점은 $150짜리라고 해서 $100,000짜리 문제 보다 더 쉽 게 문제가 해결되지도 않는다 는 점입니다. 때로는 $100,000 케이스가 더 먼저 해결되고 $150케이스가 더 오랜 기간 속 을 썩이는 경우도 적지 않습니 다. 크레딧 교정에는 결코 어 떤 기계적인 원칙이 적용되지 않기 때문입니다. 그렇다면 $150짜리 케이스는 그 금액을 이제라도 내면 문제 가 해결되지 않는냐고 생각할 수있습니다. 그 금액을 낸다는 것은 나의 잘못을 100% 인정

(Verify)한다는 것을 의미합 니다. 그 결과로 그 케이스는 “ 나중에 연체한 금액을 냈지만, 이런 문제들이 있었다”라는 내 용으로 바뀌게 됩니다. 당사자 가 연체한 사실을 인정했기 때 문에 그 케이스는 통째로 정리 하는 것은 매우 어렵게됩니다. 물론 최근 몇개월 사이에 내지 않은 연체문제는 해당 금액을 pay하는 것이 우선적인 해결 책이겠지요. 특별한 비법은 없습니다. on time에 내야할 금액을 내는 것이 크레딧 점수를 높이고 또 다른 비용부담을 줄이는 왕도 입니다. 문제가 발생했다면, 고객에게 필요한 결과를 만들 어낼 수있는 ‘진짜 전문가’를 만나는 것입니다.

[Disclaimer] This article is not a legal advice and cannot be used for that purpose. This was made only to provide credit-related information. 제공: Don Kim / Certified Credit Consultant New Hope Credit Services / 1660 K-라디오 상담 고정 출연 Don@ NewHopeCreditServices.com ●Main Office: 200 Garden City Plaza Suite 200 Garden City, NY 11530 ●Flushing Branch: 16328 Northern Blvd Suite 2D Flushing, NY 11358 <무료 상담 > Phone 516-574-2577/ 718-878-3313


B18

Tuesday, April 03, 2018

www.FindAllNY.com

구인·구직

HELP / JOB WANTED 사무직 | 전문직 | 기술직 | 요리사 | 스킨케어| 네일 마사지 | 웨이터/웨이트레스 | 세일즈 | 건축사 | 운전

숙녀복 매장 구인

슈퍼마켓 캐셔

운전자 구인

생선가게 구인

숙녀복 매장에서 중국어 구사 가능한 분을 찾습니다

슈퍼마켓에서 캐셔 유경 험·무경험자 모집합니다. 파머스 마켓 유경험·무경 험자도 구합니다.

영어필수.뉴욕길 잘 아는 분 출퇴근 자기차 있는 분 주 6일.지역 퀸즈 트럭운전. 일반운전면허, 아침7시~ 저녁 7시, 월3천$-6천$이상

중부 뉴져지 Plainfield 생선가게에서 일하실분 풀타임 피타임 경력자 우대해 드립니다

347-707-0537

646-808-5659

(루즈벨트 7번 종점 1분거리)

917-291-6111

917-699-0167(C) 908-755-2000(O)

운전기사 구인

벤 운전기사

세탁소 홀세일

세탁공장 홀세일

풀타임<트럭운전>일반면허증 가능,면허증기록 좋은분,주 6 일,월3천불, 보너스3천불, 영어가능,퀸즈거주자,자차로 출퇴근하실 분, 뉴욕길 잘아시는 분, 7am-7pm

L . I 낫소 세탁공장

15인승 벤 운전가능하신분 파트타임 풀타임 가능

최신형 기계를 보유한 롱아일랜드 소재 세탁공장에서 세탁 홀세일을 원하시는 분들을 찾습니다.

646-294-0022

415-802-5057

516-292-5810

건강과 피부건강에 관심 있으시 고 비젼을 보고 함께 비즈니스 하 실 분 구함. ☎516-707-0709 뉴저지 네일가게 메니큐어.페리 큐어, 중간기술자 초보자 환영합 니다. ☎201 - 683 - 1004(C) ☎201 - 443 - 2425(O)

씨씨스파 스킨케어사 모집 씨씨스파에서 중국말 가능한 스킨 케어사 모집합니다. ☎201-240-5222 -3/3/18---------------------------------------------------------------------------------------------------------------------------------------------------------------------------------------------------------------------------------서비스-

-3/13/18--------------------------------------------------------------------------------------------------------------------------------------------------------------------------------------------------04/10/18-박국----

뉴스킨에서 함께하실분 구합니 다. ☎516-707-0709 -3/10/18-------------------------------------------------------------------------------------------------------------------------------------------------------------------------------------------------------구부----

새로 오픈한 미용실 뉴욕 베이사이드 커미션, 체어렌 트. 헤어디자이너 구합니다. 미용관련 스페이스 렌트 ☎347-884-1116 -2/3/18---------------------------------------------------------------------------------------------------------------------------------------------------------------------------------------------------------------------------------3/27/18-

뉴저지 코스모 뷰티 아카데미 토탈 네일 피부미용 헤어 뉴저지 최고의 한국인 선생님. 러시안 볼륨 속눈썹 교육 뉴저지 주정부 정식 인가 학교 미용라이센스 취득 431 N Midland Saddle Brook NJ 한국어 문의 ☎201-803-9311 영어문의 ☎201-797-8800 05/07---------------------------------------------------------------------------------------------------------------------------------------------------------------------------------NYF-----------------------------op

면허취득과 동시에 취업 연결. 토탈 면허 / 스킨 케어 면허 NY 주 미용감독 이선주 직강 미용연구반(남자컷,매직 등), 메이크업, 영구화장, 롱레쉬 저렴한 학비, 페이먼 플랜 대규모 최신 시설. 티파니 미용학교 ☎ 917-406-8897

뉴욕에서 가장 완벽한 시스템을 갖춘 전문공장에 서 물빨래 최상의 양질로 해드립니다. 60 ¢ / 파운드

사이딩 구인

◆드라이크리닝◆ 34년 경력

516-993-7233

7/20/12----------------------------------------------------------------------------------------------------------------------------------------------------------------------------------------------------------------O

[급구] 베이비시터, 가정도우미, 가사. 산후조리. 청소간병인 경험자 우대. 초보자 상담가능 (수시접수/지원바람) 가정 도우미 소개소 ☎718-844-2244 ☎201-898-4595

김목수 (심양 건축) 풍부한 경험으로 성심껏 완벽하 게 도와드립니다. 화장실 욕조 주 방 타일 마루 페인트 네일 세탁소 델리 식당등 모든업소 [보험소지] ☎646-243-2202 12/24/16---------------------------------------------------------------------------------------------------------------------------------------------------------------------------------------------------------------------------------------------ㅈ

---1/16/18------------------------------------------------------------------------------------------------------------------------------------------------------------------------------------------------------------------------------------2/10/18-----

아이 돌봐드립니다. 소규모 맞춤 형 사랑과 정성으로 돌봐드립니 다. 1인 $50,프레쉬메도우 APT 19205 73Ave ☎917-907-2347 ☎929-293-3678 -3/13/18----------------------------------------------------------------------------------------------------------------------------------------------------------------------------------------------------------4/10/18--------------------------------

tissues affecting vitality of teeth. CT state license is required. Mail your resume to: Meriden Family Dental at 470 Lewis Ave. Meriden, CT 06451. --2/10/18------------------------------------------------------------------------------------------------------------------------------------------------------------------------------------------------------------------------------3/10/18--

곽명순 치과 틀니전문 치과 무료 상담 환영. 틀니당일 수리. 한시간내에 가능. 30년 경력 기공 사와 의사. 진료과목:임플란트/ 일반치과/신경치료/교정/사랑니 발치. 142-10B#21 루즈벨트 7번종점3분 ☎718-359-2519 Dentist wanted. Diagnose and treat disease, injuries and malformations of teeth and gums and related oral structures. May treat diseases of nerve, pulp and other dental

15인승 벤 운전가능하신분 파트타임 풀타임 가능 ☎415-802-5057 부르클린 야채가게에서 운전하 시면서 주 5일 근무 또는 파트타 임으로 일하실 분 모십니다. ☎347-426-6003 영어필수. 뉴욕길 잘 아는분 출퇴근 자기차 있는분 주 6일. 퀸즈. 트럭 운전. 일반 운전 면허. 7am-7pm. 월 $3천-$6천 이상 ☎347-707-0537 2/18/17--------------------------------------------------------------------------------------------------------------------------------------------------------------------------------------------------------------------------------------C

뉴저지 운송회사에서 트럭운전 하 실분 구합니다 ☎201-672-9400 ---------------------------------------------------------------------------------------------------------------------------------------------------------------------------------------------------------------------------------------

운전기사 구인

회사법인 회계를 담당하실 경험

(뉴욕주 정부 인가) 20년 경 험을 바탕으로 시간제한 없이 사랑으로 돌보아 드립니다. 대상(1세~4세), 미술, 색종이 접기, 피아노 지도, 차량 운행 (140-02 Poplar Ave.)

취업에 격결사유가 없으신

있는 회계직원과 초보자 구합니 다. 이력서에 연락처함께 적에주

피츠버그지역 중국동포 환영

세요​검토후 인터뷰 날짜 알려 드

참신하고 책임감 강하신 50세이 하 트럭기사 구합니다. (플러싱) ☎ 718-704-8213 ---

Will 번역 통역 이민 서류, 법률 서류, 법정 통역, 비즈니스 통역, 논문, 각종 서류 모든 것 (영어 그룹 지도) leenewyork@hotmail.com ☎646-640-6204 ☎917-849-9266 -----------------------------------------------------------------------------------------------------------------------------------------------------------------------------------------------------------------------

7일 오픈 데이케어

구합니다

12/20/14------------------------------------------------------------------------------------------------------------------------------------------------------------------------------------------------------------------------------------

10/7/17--------------------------------------------------------------------------------------------------------------------------------------------------------------------------------------------------------------------구-서비스------10/31/17

회계사 구인

사이딩 중간기술자 및 헬퍼

뉴저지 렌트카 회사에서 일하실 리셉셔니스트 구합니다. 뉴저지 거주자☎201-364-8989 ---

---------------------------------------------------------------------------------------------------------------------------------------------------------------------------------------------------------------------------------------------

-2/3/18-------------------------------------------------------------------------------------------------------------------------------------------------------------------------------------------------------------------------------------2/27/18-------

----------------------------------------------------------------------------------------------------------------------------------------------------------------------------------------------------------------------

해바라기 건축 전기 목수 중축 보 수 등 상/하수도 가스 공사 화장 실 보일러 세면대 욕실 부엌 싱크 닥트 히팅 스프링 쿨러 플러밍의 모든 설치 ☎718-644-5071

5/7----------------------------------------------------------------------------------------------------------------------------------------------------------------------------------NYF----------------박지-------op

물빨래 홀세일

◆런드리셔츠◆

초보자 / 중간 기술자 구함 와잇스톤 지역☎718-445-6774 ☎516-660-7390

05/07-------------------------------------------------------------------------------------------------------------------------------------------------------------------------------NYF-------------------------------o

신개념 속눈썹 교육과 도매판매 ◆뉴욕 네일협회 매주 월요일 10am-12pm 교육 ◆뉴저지 교육(매일교육) 속성반:10am-12pm/8pm-10pm -30분에 끝나는 테크닉 -취업과 수료증, 출장교육 가능 La bella7 ☎201-957-3737

홀세일 해드립니다

-----------------------------------------------------------------------------------------------------------------------------------------------------------------------------------------------------------------------

-11/4/17-----------------------------------------------------------------------------------------------------------------------------------------------------------------------------------------------------------------------------구-서비

Warehouse 일하실 분 00명

성실한 기사분 구합니다. 주5일 근무 또는 파트타임 175-01 rockaway Blvd

정크 익스프레스 (뉴욕시 정식 허가 전문 업체) 각종 공사후 쓰레기, 고 철수거. 델리, 세탁소 라운드리멧 철 거. 지하실 청소. 네일가게, 페디큐 어, 콘크리트, 백야드 쓰레기 청소. 정크차 무료 픽업. 무료상담,무료견 적 ☎718-415-2004

파크애비뉴 줄기세포병원 후원 이중맹검연구

718-755-9090

443-528-5777

718-886-5041

718-888-9022

917-682-3471

Graphic Designer

건축 구인

고급 SPA 구인

마사지사 구인

병원 전화 상담

Minuteman Press Bayside is looking for a Graphic Designer who has an experience with a production design. Must Speak English & Korean Ask for Andrea eztaxny@gmail.com

필라델피 마사지가게 마사지사 구합니다

병원 전화 상담 클리닉에서 한국

인디애나 폴리스에서 장판 일 하실 교포 여성분 구함 40-50세 숙식 제공

헤어 네일 마사지 남녀불문 유경험자 영어필수 201-336-4812/4813 (C)

좋은 대우,마사지하실 여자분구합니다

불문 먹고자고 가능하신분 우대 신분확실하시분

파크Ave 줄기세포 병원에서 무릎 퇴행성 관절염 Double Blind Study (이중맹검연구, IRB Protocol ICSS-2016-20) 지원자를 모집하고 있습 니다. 21-65세에 관절염이 있으 신 분들은 박사님과의 상담 후에 해당 자격이 되시면 시 술비를 받지 않고 시술을 받 으시게 됩니다.

718-353-3258

317-646-2043

212-425-3033(O)

267-772-7227

917-733-1316

917-733-1316

립니다.​근무: 월-금 9am-6pm

Jamaica NY 11434

service

말로 전화상담직 영어가능자 인 내심 사람말 잘 들어주는분. 남녀


www.FindAllNY.com

2018년 4월 03일 (화)

B19

미래에 살아남을 직업 1위 연예인, 사라질 직업 1위 번역가 직장인들 중 44%는 향후 자신의 직무가 사라질 것이라고 걱정

최근 인공지능(AI)과 로봇, 가상현 실, 3D 프린팅 등 첨단 기술들을 주요 키워드로 하는 4차 산업혁명으로 인 해 직업 세계는 그 어느 때보다 빠르 게 변화하고 있다. 한국에서는 인공지능과 로봇의 발달 로 인해 미래에 사라질 직업 1위에 ‘

번역가’가, 살아남을 직업 1위에 ‘연예 인’이 각각 꼽혔다. 잡코리아와 알바몬은 직장인 및 취 업준비생 4,147명을 대상으로 ‘미래 에 사라질 직업 vs 살아남을 직업’에 대해 설문조사를 실시한 결과 미래에 사라질 것으로 생각되는 직업(복수응

답) 1위에 번역가(31.0%)가 꼽혔다. 다음으로 캐셔·계산원(26.5%), 경 리(20.0%), 공장근로자(18.8%), 비서 (11.2%)가 차례로 향후 없어질 것 같 은 직업 TOP5에 올랐다. 이 외에도 서빙·매장관리(10.5%), 데이터베이스관리자(9.7%), 약사

(9.3%), 배조종사(8.9%), 택배원·배 달원(8.5%) 등이 10위권에 포함됐다. 향후 인공지능이나 로봇의 대체가 어려울 것 같은 직업으로는 연예인이 응답률 33.7%로 1위에 올랐다. 다음으로 작가(25.7%), 영화·연 극 감독(23.0%), 운동선수(15.4%),

화가·조각가(15.0%)가 상위 5위 권 안에 들었다. 이 외에 사회복지사 (10.6%), 경찰관·소방관(10.3%), 교 사(10.3%), 간호사(10.1%), 미용사· 이발사(9.8%) 등이 10위권에 들었다. 위 직업들이 향후 사라질 것으로 생 각하는 이유(복수응답)로는 ‘이 기 술을 컴퓨터나 로봇이 대체할 수 있 을 것 같아서’가 응답률 93.2%로 압 도적으로 높았다. 다음으로 ‘비교적 단순한 일이라서’(17.1%), ‘장래성이 없어 보여서’(7.5%), ‘위험한 일이어 서’(2.4%) 등의 순이었다. 한편, 이번 설문에 참여한 직장인 들 중 43.5%는 향후 자신의 직무가 사라질 것이라고 생각하고 있었다. 근무하는 업종 별로 차이가 있었는 데, 재무·회계직 근무 직장인의 경 우 10명 중 7명이 넘는 73.0%가 ‘향 후 자신의 직무가 사라질 것’이라고 답해 가장 많았다. 이 외에 인사·총 무직(56.6%), 고객상담직(54.3%), 생 산·제조직(53.7%), 마케팅·홍보직 (51.7%) 등의 순이었다.


B20

Tuesday, April 03, 2018

www.FindAllNY.com


www.FindAllNY.com

2018년 4월 03일 (화)

B21


B22

Tuesday, April 03, 2018

다중 보험 계약으로 크게 절약하기

www.FindAllNY.com

오늘 전화하셔서 절약하세요!

절약 방법 중 하나는 주택, 생명, 사업 보험에 함께 가입하는 것입니다. 보장 옵션을 현명하게 선택하고 할인받으세요.

929.362.2436 Wonil (Dennis) Bae 귀하의지역보험대리인

19506 47TH AVE FLUSHING, NY 11358 WBAE@FARMERSAGENT.COM 제한 사항이 적용됩니다. 할인 혜택은 경우에 따라 다를 수 있습니다. 모든 주에서 이용이 가능한 것은 아닙니다. 자세한 사항은 보험 대리인에게 확인하시기 바랍니다. 보험 인수자: Farmers Insurance Exchange 및 기타 보험 계열사. 전체 회사 목록은 farmers.com 웹 사이트에 있습니다. 보험자에 따라 일부 주에서는 보험 제공이 허가되지 않을 수 있습니다. 모든 주에서 커버리지를 이용할 수 있는 것은 아닙니다. Farmers New World Life Insurance Company(3003 77th Ave SE, Mercer Island, WA 98040) 발행 생명 보험,


www.FindAllNY.com

2018년 4월 03일 (화)

B23


B24

Tuesday, April 03, 2018

www.FindAllNY.com

주문하기 1.예약자 이름 2.픽업날짜/시간

주문하기

3.주문번호/수량 1.예약자 이름

4.원하는색상[2가지] 2.픽업날짜/시간

입금정보

3.주문번호/수량

[제품특성상 입금확인후 제작에 들어갑니다.] 4.원하는색상[2가지]

1.입금자 이름 입금정보

2.입금금액 [제품특성상 입금확인후 제작에 들어갑니다.] 1.입금자 이름 2.입금금액

주문번호

안내사항

001: 1호 케잌 -폭14cm *높이 7cm

1.백설기는 떡의 특성 상 시간이 지날수록

[만들어지면 6cm로 줄어듭니다.]

굳는 속도가 빨라지므로 수령일에 드시는것이

주문번호

안내사항

가장 좋습니다. 1.백설기는 떡의 특성 상 시간이 지날수록

1호 -폭20cm*높이 케잌 -폭14cm *높이 002: 001: 3호케익 7cm 7cm

굳는 속도가 빨라지므로 수령일에지며 드시는것이 2.선 결제후 작업이 이루어 예약은 하루전날까지

[만들어지면 6cm로 줄어듭니다.]

003: 2단 사이즈 - 1*3호

가장 좋습니다. 인점 참고해 주세요..

002: 3호케익 -폭20cm*높이 7cm

005:컵케이크[4개이상 주문가능]

2.선 결제후 작업이 지며떡시트의 예약은 하루전날까지 3.앙금의 당도를이루어 고려하여 당도를 낮췄으니

007:앙금쿠키-1box[4개]10개이상주문가능 005:컵케이크[4개이상 주문가능]

인점 참고해 주세요.. 꽃앙금의 양으로 당도를 조절하여 떡과함께 드시면 3.앙금의 당도를 고려하여 떡시트의 당도를 낮췄으니

007:앙금쿠키-1box[4개]10개이상주문가능

꽃앙금의 양으로 당도를 조절하여 떡과함께 드시면

003: 2단 사이즈 - 1*3호

보다 맛있게 케잌을 즐기실수 있습니다.

008:앙금쿠키 - 1box [12개]2개이상주문가능

.

009:앙금쿠키1box [15개] 008:앙금쿠키 - 1box [12개]2개이상주문가능

보다 맛있게 케잌을 즐기실수 있습니다. .

009:앙금쿠키- 1box [15개]

한국에선 이미 유명한 예쁘고 건강하게 맛있는 다이어트 떡케이크 [쌀과 강낭콩]

가격 가격

앙금케잌 맛있게 먹는방법[보관방법] 앙금케잌 맛있게 먹는방법[보관방법]

-$ 65 001 001 -$ 65

1.앙금케이크는 설기위에 앙금꽃을 올려 같이 1.앙금케이크는 설기위에 앙금꽃을 올려 같이

002-$ 002-$ 110110

드시면 가장가장 맛있습니다. 드시면 맛있습니다.

003-$ 003-$ 170170

*드시고 남은떡은 꼭 냉동보관 하셔야하셔야 합니다.합니다. *드시고 남은떡은 꼭 냉동보관

005-$15.99

2.냉동보관 하실때는 꼭 밀봉해 주세요.

007-$ 9.99

3.1~3분정도 전자레인지에 데워서 드시면

008-$29.99

맛있게 드실수 있습니다.

005-$15.99

2.냉동보관 하실때는 꼭 밀봉해 주세요. 3.1~3분정도 전자레인지에 데워서 드시면

007-$ 9.99

맛있게 드실수 있습니다.

008-$29.99

데우는 시간은 케이크에 따라 차이가 있으므로

009-$39.99

30초 간격으로 확인해 주세요.

009-$39.99

데우는 시간은 케이크에 따라 차이가 있으므로

돌잔치 답례품 모임 단체주문시 할인문의

30초 간격으로 확인해 주세요.

돌잔치 답례품 모임 단체주문시 할인문의

100%핸드메이드라 사진과 같을수 없습니다.

100%핸드메이드라수강문의 사진과 같을수 없습니다.

*건강하게 수강문의 예쁘게 맛있다~

*건강하게 예쁘게 맛있다~

*한땀한땀 정성스럽게 100% 수작업으로 이루어 지며 먹을수 있는 맛있는 꽃이라 더욱 감동적인 선물입니다.

*한땀한땀 정성스럽게 100% 수작업으로 이루어 지며 *축하,감사,행사용 등 감동을 한가득 불러 들이는 건강하고

먹을수 있는 맛있는 꽃이라 더욱 감동적인 선물입니다. 맛있는 ‘노브랜드케잌’으로 감동을 선물하세요

*축하,감사,행사용 등 감동을 한가득 불러 들이는 건강하고 *방부제,유화제를 전혀 사용하지 않은 건

맛있는 ‘노브랜드케잌’으로 감동을 선물하세요 강한 재료만 사용했습니다.

*방부제,유화제를 전혀 사용하지 않은 건

케익 하나 만드는데 4시간 정도 소요되는 강한 재료만 사용했습니다.

정성이 가득한 케이크 입니다.

케익 하나 만드는데 4시간 정도 소요되는 정성이 가득한 케이크 입니다.


www.FindAllNY.com

2018년 4월 03일 (화)

벼룩시장 줄광고

웨이터 구인

드랍스토어 매매

커네디컷&보스턴 벼룩시장 줄광고 3/1~3/31/18까지 무료 리스팅

레스토랑 C/T 히드포드 지역 한식당 웨이터/ 웨이츄레스

C/T 대형쇼핑몰 위치드랍 스토어 매매 운영해 보신후 구입 가능한분 Gasboilor . Wsahmachine Dryer 2each pressmachine 설치되어 있는 드랍스토어

718-359-0700

860-216-3041

917-750-8488

드랍스토어 매매

물품 매매

물품 매매

C/T 드랍스토어 맡어서 운영해 주실분 (테일러 가능한분)

세탁소 각종장비 사고 팝니다 (NEW USED} (최고가격 최저가격 ) INSTOL / 철거도 해드립니다

상태양호한 (USED} 컴퓨터 자수기계 구함 1 Head 6 Head 12 Head

860-266-0903

646-300-0903

917-750-8488

-12/9/17------------------------------------------------------------------------------------------------------------------------------------------------------------------------------------------------------------------------------------------------

TOLLAND 휴일 유급휴가및 숙소제공해드림 ☎860-871-2155 ----------------------------------------------------------------------------------------------------------------------------------------------------------------------------------------------------------------------------------------------------

NEW BRITIAN 유급휴가 중간기술자구함 ☎860-665-9010 -----------------------------------------------------------------------------------------------------------------------------------------------------------------------------------------------------------------------------------------------

NEWINGTON 고급동네에 위치 TIP 20% 보장 ☎860-817-6108 --------------------------------------------------------------------------------------------------------------------------------------------------------------------------------------------------------------------------------------------

WATER TOWN 중간기술자 또는 초보자구함 ☎860-417-6020 --------------------------------------------------------------------------------------------------------------------------------------------------------------------------------------------------------------------------------------------------

WETHERSFIELD 기숙사완비 손발 잘하시는분 ☎869-436-6252

EAST LONGMEDOW 가족분위기 고급동네 기술자구함 ☎860-670-2908 --------------------------------------------------------------------------------------------------------------------------------------------------------------------------------------------------------------------------------------------------

GLASTON BURY 고급동네 수입보장 ☎860-430-1937 ----------------------------------------------------------------------------------------------------------------------------------------------------------------------------------------------------------------------------------------------

ROCKY HILL 유급휴가 Pick Up 가능 ☎860-817-6108

----------------------------------------------------------------------------------------------------------------------------------------------------------------------------------------------------------------------------------------------

BRISTOL 가족같이 오래 근무하실분 ☎860-582-7667 ----------------------------------------------------------------------------------------------------------------------------------------------------------------------------------------------------------------------------------------------

BRISTOL 지역 초보/중간 일류기술자 ☎860-319-7765 ----------------------------------------------------------------------------------------------------------------------------------------------------------------------------------------------------------------------------------------------

유급휴가 중간/고급 기술자 모십 니다 ☎860-922-6126 ----------------------------------------------------------------------------------------------------------------------------------------------------------------------------------------------------------------------------------------------

----------------------------------------------------------------------------------------------------------------------------------------------------------------------------------------------------------------------------------------------

FARMINGTON FullTime / PartTime 하실분 ☎860-404-5948

초보/중간/ 손발 잘하시고 오래근무 하실분 ☎860-378-7570 ----------------------------------------------------------------------------------------------------------------------------------------------------------------------------------------------------------------------------------------------

----------------------------------------------------------------------------------------------------------------------------------------------------------------------------------------------------------------------------------------------

SOUTH WINDSOR 초보/ 중간/일류기술자 구함 ☎860-716-0210

NEW BRINTION 가족적인분위기 손발 잘하시는 분 ☎646-359-7209 ----------------------------------------------------------------------------------------------------------------------------------------------------------------------------------------------------------------------------------------------

----------------------------------------------------------------------------------------------------------------------------------------------------------------------------------------------------------------------------------------------

PORTLAND 초보및 중간기술자 한함 ☎203-739-5825

공휴일 Pay 스케즐조절가능 ☎860-338-2299 ----------------------------------------------------------------------------------------------------------------------------------------------------------------------------------------------------------------------------------------------

-----------------------------------------------------------------------------------------------------------------------------------------------------------------------------------------------------------------------------------------------

--------------------------------------------------------------------------------------------------------------------------------------------------------------------------------------------------------------------------

COLCHESTER FullTims 또는 PartTime 하실 분 ☎860-537-0097

GRANBY FullTime / PartTime 하실분 ☎646-226-4644

---------------------------------------------------------------------------------------------------------------------------------------------------------------------------------------------------------------------------------------------------

----------------------------------------------------------------------------------------------------------------------------------------------------------------------------------------------------------------------------------------------

일류기술자구함 숙소재공가능 ☎860-912-5496

가족적분위기 Holiday pay ☎860-648-2272

BRISTOL HoLaDay Pay 초보, 중간기술자 구함 ☎860-319-7765 ---------------------------------------------------------------------------------------------------------------------------------------------------------------------------------------------------------------------------------------------------

AVON FARMINGTON 중간 /일류기술자 급구함 ☎860-707-3273

----------------------------------------------------------------------------------------------------------------------------------------------------------------------------------------------------------------------------------------------

AVON 중간/고급기술자 /고급동네 ☎869-604-5742 ----------------------------------------------------------------------------------------------------------------------------------------------------------------------------------------------------------------------------------------------

AVON 고급동네 알류기술자 초빙 ☎646-477-5999 ----------------------------------------------------------------------------------------------------------------------------------------------------------------------------------------------------------------------------------------------

AVON 스케즐조절가능 Holiday pay 가족인분위기 860-338-2299 ----------------------------------------------------------------------------------------------------------------------------------------------------------------------------------------------------------------------------------------------

B25


B26

Tuesday, April 03, 2018

www.FindAllNY.com


www.FindAllNY.com

2018년 4월 03일 (화)

B27

송동호 종합로펌 이민팀 H-1B 법률 칼럼 시리즈 “H-1B가 다가 아니다”

안녕하세요, 송동호 종합로펌이민팀 입니다. 지난 5년간 H-1B 취업비자 가 추첨을 통해 조기마감되었듯이 올 해도 많은 이민변호사들이 H-1B조 기 마감을 예상하고 있습니다. H-1B 스폰서를 구하지 못해서 또는 여러 다 른 이유로 올해 H-1B 신청 자격이 안 되었거나 접수를 했더라도 신분 문제 로 불안하신 분들은 무조건 낙담하 기 보다는 자신의 상황에 맞는 차선 책들은 없는지 고려해 보시기 바랍니 다. 미국에 남아 경험을 쌓는 방법으 로 H-1B만 있는 것은 아니기 때문입 니다. 미국 이민시스템에는 다양한 비 자들이 있으며 개개인의 상황에 따라 다양한 차선책을 고려할 수 있습니다. 오늘은 그 차선책을 여러분과 함께 고 민해보겠습니다. 우선, 전공이 STEM (과학, 기술, 공 학, 수학)분야이고 해당 직업군에서

취업이 되어 현재 OPT 로 체류하고 있다면 기존 OPT 12개월에 추가로 24 개월의 OPT 연장이 가능 합니다. 따라서 STEM OPT에 해당되는 전공 을 마치신 졸업생이라면, STEM OPT 연장을 통해 취업허가기간을 늘릴 수 있을 뿐만 아니라 미국에 체류하는 동안 다음 해 H-1B 신청을 노려볼 수 있습니다. STEM OPT 연 장은 자동으로 연장되는 것이 아니기 때문에 본인이 여기에 해당되는지 먼 저 파악하신 후 현재 OPT가 끝나는 날짜를 고려하여 미리 연장 신청을 하 셔야 합니다. 본인의 전공이나 직업군을 고려하여 다른 비자들을 고려할 수도 있습니다. 예를 들어, 과학, 예술, 교육, 비즈니 스, 운동 또는 영화, TV프로그램 제 작등에 관련된 분야에 취업하였고, 해 당 분야에 뛰어난 능력을 보유하고 있 다고 증명할 수 있다면 “특수재능소 유자비자”라고 불리는 O비자를 고려 할 수 있습니다. 저희 이민팀에서 다 루는 많은 케이스들 중 건축, 그래픽, 미술, 패션 디자인, 음악, 순수 또는 응 용과학 등등을 전공하신 분들께서는 O비자를 신청하시어 좋은 결과를 받

으셨습니다. 한국에서도 청년창업에 대한 관심 이 많다고 합니다. 만약 본인이 직 접 사업체를 설립하여 운영해보고자 한다면 고용주에 의지하는 대신 “비 이민 투자자 비자”라고 불리는 E-2 Investor비자를 고려할 수 있습니다. 이 경우에는 실제 투자가 이루어져야 하며 투자자가 단지 생계유지를 위해 투자를 하는 것이 아님을 증명해야 합 니다. 비이민 투자자 비자는 이민와 달리 투자 금액이 정해져 있지 않아 비교적 적은 액수 투자로도 가능합니 다. 또한, 사업체를 유지하는 한 투자 자의 직계가족들이 함께 미국에서 체 류 할 수 있다는 장점이 있고, E-2배 우자 또한 미국에서의 합법적인 취업 이 가능합니다. H-1B를 신청했던 회사가 외국 투자 회사라면 해당 회사의 직원으로 E-2 Employee비자를 받는 방법을 고려 할 수 있습니다. 예를 들어, 미국에 있 는 많은 한국계 대기업들은 한국에 있 는 모기업이 100% 지분을 가지고 있 는 E-2회사입니다. 이런 회사들은 직 원에게 E-2 employee로 비자를 제 공할 수 있습니다. 따라서, 자신이 한 국계 대기업에서 H-1B를 신청했는 데, 추첨에서 떨어졌거나 거절을 받았 다면 해당 회사가 E-2회사인지 확인

을 해 보시고 합법 체류 기간 내 신분 변경을 하시기 바랍니다. H-3비자도 대안책으로 많이 언급되 는 비자입니다. H-3비자는 “취업연 수생비자”라고 불리며 고용주로부터 특정 분야에 대한 취업 연수를 받기 위해 신청하는 비자입니다. 보통 상 업, 방송, 금융재정, 정부관련, 교통, 농업 등의 분야 연수에 많이 이용됩 니다. 최대 2년간 유효한 이 H-3 비 자를 받기 위해서는 해당 연수가 외국 에서 불가능하며 그래서 미국에서 받 아야 한다는 것에 대한 고용주의 증명 이 중요합니다. 예를 들어, 한국에 아 직 소개되지 않은 건축 기술을 보유하 고 있는 회사, 한국에서는 배우기 쉽 지 않은 위스키 제조기술, 요리기술등 을 가지고 있는 기관에서 경력을 쌓 고 싶다면 H-3비자를 고려해 볼 수 있습니다. 마지막으로 영주권을 생각해볼 수 있습니다. 많은 분들이 H-1B를 받아 야 영주권을 신청할 수 있는 것이 아 니냐고 물으십니다. 하지만, 영주권 신청에는 H-1B여야 한다는 조건은 없습니다. 단, 많은 분들이 F-1에서 H-1B로 일을 하다가 영주권을 받기 때문에 그렇게 알고 계시는 것 같습니 다. F-1 학생 신분을 가지고 있더라도 영주권 절차를 시작할 수 있으며 영주

권 카테고리에 따라 짧게는 1년 길게 는 1년 반 정도가 소요된다는 것을 고 려하면 다른 비이민비자보다 안정적 일 수 있습니다. 실제로 저희 로펌에 는 작년 추첨에서 떨어진 다수의 고 객들이 고용주와 상의하여 영주권 절 차로 전환하였습니다. 이 분들은 현재 케이스가 마무리 단계이거나 마무리 되어 모두 합법적으로 미국에서 일을 하고 있습니다. 오늘은 가능한 많은 옵션 중 가장 흔 하게 고려되는 일부 비이민 및 이민 비자에 대해 생각해보았습니다. 개인 의 상황에 따라 다른 비자가 가능할 수 있습니다. 인생에 위기라고 생각하 는 순간이 오더라도 침착하게 상황을 객관적으로 파악하고 전략을 짠다면 오히려 다른 기회를 여는 중요한 전환 점이 될 수 있습니다. 여러분의 H-1B 대안 고민을 송동호 종합로펌이 함께 하겠습니다.

본 칼럼 내용에 대한 추가 문의사 항이 있으시거나, 알고 싶으신 법 률이 있으면 주저 마시고 mail@ songlwafirm.com으로 문의해주세 요. 다음에 쓸 칼럼에 반영하겠습니 다.


B28

Tuesday, April 03, 2018

www.FindAllNY.com


www.FindAllNY.com

2018년 4월 03일 (화)

9/23/17-------------------------6M----------------NY--------------------------------------------------------------------------------------------------------------------------------------------------------3/27/18------

있습니다.관심있으신분 연락주 세요.seonghaprk72@gmail.com ☎646-335-3355 11/11/14---------------------4m-------------NY--------------------------------------------------------------------------------------------------------------------------------------------------------------------11/10/1

에프터스쿨 파트타임 선생님 구 합니다. 일하실시간 :2pm-6pm Send resume to eychang2002@yahoo.com ☎718-353-1805 10/31/17----------------------------------------------------------------------------------------------------------------------------------------------------------------------------------------------------------------------구-서비스----------

<7일 오픈 데이케어> (뉴욕주 정부 인가) 20년 경험을 바탕으로 시간제한 없이 사랑으 로 돌보아 드립니다. 대상(1세~4세), 미술, 종이 접기, 피아노 지도, 차량 운행 (140-02 Poplar Ave.) ☎718-888-9022 05/1/14---------------------------------------------------------------------------------------------------------------------------------------------------------------------------------------------------------------------------------------

스페니쉬 튜터(Spanish Tutor) 구합니다.시간은 상담 후 정할수

컴퓨터 출장 수리 & 교육 업그레 이드 컴퓨터에 관한 모든 문제 해 결 픽업 출장수리 B&B 컴퓨터 ☎718-279-2685

Dryer 2층 15대 LG 드럼용 세탁기/ 드라이어 ☎201-618-8497 ☎201-313-1686

Required language: English,Korean eztaxny@gmail.com ☎718-353-3258

-----------------------------------------------------------------------------------------------------------------------------------------------------------------------------------------------------------------------

1/10/17------------------------------------------------------------------------------------------------------------------------------------------------------------------------------------------------------------------------------------------------JE

의자 천가리 전문업체 네일 의자, 페디케어 의자, 식탁 의 자, 미용실 의자, 마사지 침대, 부박 이소파, 쿠션 주문제작,네일가구 수 리해드립니다. 저렴한 비용으로 수 리해드립니다. ☎347-786-0111 ☎646-581-1200 10/7/17-----------------------------------------------------------------------------------------------------------------------------------------------------------------------------------------------------------6months

-----------------------------------------------------------------------------------------------------------------------------------------------------------------------------------------------------------------------

100%만족 보장 판매 수리 웹사이 트 전문 모든 컴퓨터 문제 해결 깨진 스크린 수리 휴대폰까지 HD초고화 질 CCTV 설치 ☎718-762-6000 -----------------------------------------------------------------------------------------------------------------------------------------------------------------------------------------------------------------------

세탁기/드라이어 설치 수리 판매 가정용, 상업용-Wascomat 50파운드 7대, 35파운드 14대 28파운드 14대, 18파운드 7대

캔디스토어 에서 야간캐셔구함

금 토 4 PM -1AM 이틀 일 ☎914-582-8904 하실분 3/24/18--------------------------------------------------------------------------------------------------------------------------------------------------------------------------------------------------------------------------------------------4/21/18

글리코영양소 영업사원 모집합니다. KBS '생노병사의 비밀'과 MBN '엄 지의제왕'에 소개되어 찬사 받은 글 리코영양소 판매하실분 연락주세요. ☎718-358-1319 1/10/17------------------------------------------------------------------------------------------------------------------------------------------------------------------------------------------------------------------------------------------------JE

Minuteman Press Bayside is looking for a Graphic Designer who has an experience with a production design. location: 34-51 Francis Lewis Blvd Bayside, NY 11358

데이케어 센터에서 일하실 여성 파트타임, 풀타임 가능 ☎917-673-0778 -2/3/18-------------------------------------------------------------------------------------------------------------------------------------------------------------------------------------------------------------------------------------2/27/18-------

아스토리아 슈퍼마켓 스시 운영하실분, 유경험 스시 팟타 임 하실 분 ☎917-577-8468 6/24/17-------------------------------------------------------------------------------------------------------------------------------------------------------------------------------------------------------------------------------------------------

백악관 흑인인턴 찾기…진정한 '화이트 하우스'?

백악관이 공개한 2018년 봄 인 턴사원 단체 사진이 전 세계의 시선을 끌었다. 한가운데 트럼 프 대통령과 함께 활짝 웃고 있 는 이 사진 속에는 90여명이나 되지만 흑인이나 아시아계는

불과 2~3명 밖에 눈에 띄지 않 는다. 예전 오바마 전 대통령 당시 단체 사진에서 백인과 다른 피 부색을 가진 인턴사원이 쉽게 눈에 보였던 것과는 큰 차이를

보이고 있는 것이다. 워싱턴포스트 등은 최근 공개 된 백악관 인턴 단체사진이 여 론의 뭇매를 맞고 있다고 보도 했다. 워싱턴포스트는 “백악관이 공

개한 사진은 정부가 다양성에 무신경한 게 오직 고위급에 대 한 것만이 아니라는 점을 일깨 워준다”며 “그것은 아래서부터 시작한다”고 지적했다.

B29


B30

Tuesday, April 03, 2018

www.FindAllNY.com


www.FindAllNY.com

2018년 4월 03일 (화)

B31


B32

Tuesday, April 03, 2018

www.FindAllNY.com

교회·종교

CHURCH & RELIGION 교 회 | 신앙생활 | 종교 | 칼럼

유럽에 무종교인 증가…"100년안에 기독교 사라질 수도" 한국도 "종교가 없다"는 국민 56.1%…10년전보다 9% 상승 유럽에서 100년 안에 기독교가 사라질 수 도 있다는 연구 결과가 제기됐다. 영국 일간 지 가디언은 스티븐 불리번트 영국 세인트 메리대 교수의 연구를 인용, "대다수의 유럽 젊은이들이 무종교인인 것으로 나타났다"고 보도했다. 무종교인이란 종교가 없거나 어느 종교 집단에도 속하지 않은 사람을 말한다. 유럽연합이(EU)이 유럽 21개국의 16~29세 사이 젊은이를 대상으로 진행한 설문조사 결 과 조사 대상 국가 중 12개국에서 50% 이상 의 응답자가 자신이 무종교인이라고 답했다. 조사에서 무종교인 응답 비율이 가장 높았던 나라는 체코(91%)였으며 에스토니아(80%),

스웨덴(75%) 등이 뒤를 이었다. 해당 연구를 진행한 불리번트 교수는 "종교 는 현재 빈사 상태다"라며 "유럽 사회에서 표 준으로서의 기독교는 이미 사라졌거나 적어 도 100년 이내에 사라질 것이다"라고 주장했 다. 자신을 무종교인이라고 생각하는 사람은 한국에도 상당수 존재하는 것으로 나타난다. 지난 2015년 통계청의 종교 분포조사에 따르 면 한국에서 종교가 없는 국민은 56.1%인 것 으로 나타나 10년 전 조사된 47.1%에서 9% 상승했다.

Christian Society 단원모집


www.FindAllNY.com

2018년 4월 03일 (화)

교육·전문지도

B33

EDUCATION

CDL 라이센스 취득 | 통역/번역 | 기술지도 마사지 면허 | 미용 자격증 | 여름학교 과외

네가 알지 못하는 크고 비밀한 일을 네게 보이리라 [ 제 3장 삶은 끝없는 도전 ] 10. 기도로 구한 둘째의 뇌출혈 왕우렁이 종자를 분양받고 싶은데 어디로 가면 되나요?” 등등의 질문이 매일 몇 번씩 전화가 걸려와서 일을 방해했다. 왕우 시도 때도 없이 걸려 오는 전화에 무조건 ○○수산 전화번 호를 알려주면 되는 게 아니었다. 나 는 책을 써 인세를 받은 저자이고, 전 화를 건 사람은 내가 쓴 책을 산 고객 이라 피할 수 없었다. 이것이 힘든 일 거리였다. ○○수산은 종자만 분양했지, 후처 리 서비스가 전문성이 떨어져 제대로 되지 않고 있었다. 그 일을 내가 했었

는데, 내가 떠난 후 다른 직원들이 그 일을 잘 못하고 안 사장은 접대 및 방 송 등 외부 활동이 많아져 신경을 못 쓰고 있는 게 안 봐도 비디오였다. 결국 후처리 문제로 안 사장이 집단 소송에 휘말리게 된 것이었다. 어느 영농조합 회원들 서른여 명이 한 사 람당 2킬로그램에 200만 원씩 들여 종 자를 대량으로 분양받아 양식을 했는 데, 이들이 모두 3개월도 안 돼서 모 두 죽었다고 해서 사기로 고소를 한 것이었다. 이날 해당 검사와의 증인 심문에서 충분히 납득시킬 수 있었던 것은 책 때문이었다. 책이 없었더라 면 아마도 검사를 설득시키기 어려웠 을 것이다. 내가 왕우렁이 양식에 대 해 책을 써서 출판을 하겠다고 했을 때 안 사장은 무슨 이유인지 반대를

했었다. 그래서 나는 안 사장에게 책 에 대한 말은 일절 하지 않고 원고를 완료해서 책을 출간 해버렸다. 그런 데 아이러니 하게도 안 사장은 자신 이 출간 반대를 했던 책으로부터 도 움을 받는 처지가 된 것이었다. 1992년 12월 둘째 아들이 태어난 지 7개월 되던 어느 날 처남댁이 강남병 원(현 서울의료원 강남 분원)에서 출 산을 했다고 해서 큰아들 아내는 채 원이를 데리고 나는 총명이를 안고 아내와 축하하러 방문을 했다. 산모 실을 들어갔더니 산모 옆에 빈 침상 이 벽 쪽으로 붙어 있었다. 축하 인 사를 하고 애기를 빈 침상에 내려 눕 혔다. 그러고 돌아서서 산모 쪽으로 돌아 서는데 “퍽” 둔탁한 소리가 내 뒤에서

들려 돌아봤더니 침상에 아기가 없었 다. 깜짝 놀라 침상 밑을 보았더니 아 이가 떨어져 누워 있는 것이 아닌가? 이 녀석이 금세 굴러서 밑으로 떨어 진거였다.

[다음호에 계속] 저자 <노권호> : 뉴욕에서 부동산 과 융자 및 재정상담가로 활동 중. 미국 최초로 스팀 살균세차 기술을 개발 완료, 미전역 세차장에 공급을 준비중인 이지스팀의 부사장. 연락처: 201-675-1951 이메일: syatt2020@gmail.com

<판매처> 반디서점: 718) 353-4411 할렐루야 서점: 718) 762-0011 NJ 고려서적: 201) 944-8740 NJ 한양서점: 201) 947-1717


B34

Tuesday, April 03, 2018

www.FindAllNY.com

CCB - 손경탁 원장의 <나의 직장 상업 영어>

뉴욕주 대마초 중독 사망자 증가 청소년, 학생들 마약 중독 조심해야

◇ Case #3. ※아래의 대화를 미국현지 영어회화로 구사해 보세요. "결국 모든 결정권은 당신이 갖고 있으니 난 그저 당신의 결정에 따르도록 해 야죠. 안 그래요?" 'Well, you bring home the bacon, after all.' K씨는 뉴욕시내에서 무역업을 크게 하는 사업가이다. 미국 거래처와 긴밀한 관계를 유지하기 위해 때로는 롱 아 일랜드 개인 집으로 초대할 경우도 있지만 때로는 거래처 사장들의 가정에 초대 받아 갈 경우도 있다. 뉴욕 Long Island 지역에 살고 있는 어는 미국거래처 사장의 가정에서 그들 식구들끼리의 대화를 듣게 되었으나 충분히 이해가 되지 않았다. 내용은 저녁식사 Table에서 주고받는 대화내용들이다. 7학년 딸 Sandy가 'Aren't we going to go on a vacation this year, Mom?' (엄마, 그년에는 우리 가족들끼 리 휴가 안 가나요?) 라고 물었다. 'Well, why don't you ask it to your Daddy?' (글세, 아빠한테 여쭈어 보렴?) 라고 대답했다. 옆에 있던 아빠가 'That's a good question, Sandy.' (그것 참 좋은 질문이구나, 샌디야.) 라고 말 하면서' Okay, let's talk it over and decide.' (좋아. 우리 함께 의논해서 결정하도록 하자꾸나.) 그리고는 옆에 있는 엄마를 쳐다보며 'Well, what do you think, honey? Where shall we go to?' (글쎄. 당신 은 어떻게 생각해요? 어디로 갈까요?) 했더니, 어머니 대답이 'Don't ask me. You decide it. You bring home the bacon, after all.' 이라고 했다. 여기서 You bring home the bacon. 이라는 표현이 미국현지 상류사회의 Idiom으로 자주 사용되고 있는 표현이나 K씨가 단어는 알아 들었으나 이해가 되지 않았다. 이 뜻은 미국생활역사 속에서 생겨난 말이다. 과거 역사를 보면 미국의 식생활에서 반드시 있어야 할 Side dish로 Bacon은 매우 중요한 음식이었다. 우리나라의 김치와 같은 존재라고 보면 된다. 그러나 이 Bacon은 미국가정에서 대개 생활 경제권을 소유하고 있는 사람이 사오게 마련이다. 지금도 세상 어는 곳에서나 한 가정에서 생활의 경제권을 쥐고 있는 사람 이 언제나 그 가정에서 큰 소리치고 또한 무슨 일이든 결정해야 할 권한도 갖고 있는 것이다. 문제는 You are the only person in our family who can make a decision. 이라고 말하지 않고 중요한 문제를 결정지어야 할 경우 Well, you bring home the bacon, after all. 이라고 말한다. 식구들끼리 무슨 영화를 볼 것인가를 결정해야 한다 든지, 주말에Picnic을 어디로 갈 것인지, 가게에 무슨 item을 개발 전시할 것인지, 도매시장에서 유행상품을 골라 구 입해야 할 때 등 많은 환경에서 결정권을 이임할 경우 Well, don't ask me. You bring home the bacon, after all. 이라고 외워서 사용한다면 품위 있는 영어가 될 것이다. 위의 문장 중에서 Let's talk it over and decide. 라 는 말은 일상생활에서 자부 사용되는 표현이니 함께 외워 두는 것이 좋다. 다음과제는 친구에게 심각하게 들려 준 나의 충고 한마디를 들었어도 실천하지 않고 자신의 고집대로 해서 결국 일을 실패했을 때 하는 말이다.

"내 말 잘 들어요. 호미로 막을 것을 가래로 막는 경우가 있어요. 나중에 후해하지 말고 지금 내가 말 한대로 어서 병원에 가 봐요." 이러한 감정의 말을 과연 미국현지영어로 연구하자.

미 전역에서 오피오이드 오 남용문제가 심각한 사회문제로 대두된 가운데 뉴욕주에서도 오피 오이드 중독 사한편 이번 조사에서 동기간 오피 오이드 중독 사망자가 가장 많이 증가한 연령대 는 36.7% 증가한 15~24세로 나타났다. 인종별로는 흑인이 전년도보다 56.1% 증가 해 오피오이드 중독 사망자가 가장 많은 인종 으로 조사됐고 아시안 36.4%, 라티노 32.6%, 백 인 25.9% 순의 증가세를 보였다. 한편 이번 조 사에서 동기간 오피오이드 중독 사망자가 가장 많이 증가한 연령대는 36.7% 증가한 15~24세로 나타났다. 인종별로는 흑인이 전년도보다 56.1% 증가해 오피오이드 중독 사망자가 가장 많은 인종으 로 조사됐고 아시안 36.4%, 라티노 32.6%, 백인 25.9% 순의 증가세를 보였다. 망자수가 증가한

것으로 나타났다. 질병통제예방센터(CDC)의 약물 남용 현황보 고서에 따르면 2016년 전체 조사 지역의 마약 남 용 사망자는 6만3,632명이며 이중 4만2,249명에 달하는 66%가 처방전이나 불법 오피오이드 남 용으로 숨졌다. 뉴욕주에서 오피오이드 남용에 따른 사망자수 는 3,009명으로 2015년 2,166명보다 843명이 늘 었다. 한편 이번 조사에서 동기간 오피오이드 중독 사망자가 가장 많이 증가한 연령대는 36.7% 증 가한 15~24세로 나타났다. 인종별로는 흑인이 전년도보다 56.1% 증가해 오피오이드 중독 사망자가 가장 많은 인종으 로 조사됐고 아시안 36.4%, 라티노 32.6%, 백인 25.9% 순의 증가세를 보였다.

201-567-3879

32 Piermont Rd. Ste7 Cresskill NJ 07626

중국어 강의 Chinese (Mandarin) Class 뉴욕, 뉴저지 지역 (NY, NJ) 마사지 스파 매매풍부한 강의 경험, 노하우 10년 이상 Over 10 Year Teaching Experience 어려운 중국어를 쉽게, 재미있게 배울 수 있는 찬스! A Good Chance to Learn Chinese Easy and Fun! 한국어, 영어로 강의 (Teaching in English or Korean) 어린이, 학생, 일반인, 비즈니스, 그룹, 단체 강의 (Kid, Student, Adult Classes) Email. nynjchinese@gmail.com

646-982-2761


www.FindAllNY.com

2018년 4월 03일 (화)

프랜시스 영재스쿨

영어 지도

영어책 클럽

명품 가죽백 수리

주정부 정식인가된 유치원으로 무료 UPK와 어릴때 부터 체계적인 교육으로 2세부터 방과후학교까지 정성껏 돌봐 드립니다.

영어 실력이 부족한 초중고생, 한국에서 갓이민온학생, 1:1 개인지도 해드립니다.

작가 최복림씨가 운영하는 영어북클럽, 매달첫수요일 (저녁ㅇ-8) 그달의 영어소설을 읽고 토론 (46-20 Prarson Blvd)

주문 생산 핸드백 교실 603B Brord Ave. Ridgefield NJ07650

718-578-7828

718-279-2685

718-279-2685

917-355-6151

바탕으로 시간제한 없이 사랑으 로 돌보아 드립니다. 대상(1세~4세), 미술, 색종이 접 기, 지도, 차량 운행 (140-02 Poplar Ave.)

시간 : 8AM~10PM 장소:플러싱 교실, 와잇스톤 교실 ☎347-577-2332 ☎929-319-0512

구반(남자컷,매직 등), 메이크업, 영구화장, 롱레쉬. 저렴한 학비, 페이먼 플랜. 대규모 최신 시설. 티파니 미용학교 ☎ 917-406-8897

<수학과외> 전문강사 'Dr. Yoo' 가 자녀들의 학습 책임지도 1:1 소그룹 책임지도 SAT 1/11 , ACT, AP, SHSAT PSAT, Junior High/High school Math Regent, Hunter, State/City wide Dr. Yoo ☎718-501-5544 -2/24/18--------------------------------------------------------------------------------------------------------------------------------------------------------------------------------------------------------------------------------5/22/18--

수학 전문지도(한국어/영어) 초중고 지도가능, 플러싱-베이사 이드까지, 스케줄 조정가능 (남자 선생님) ☎315-741-9494

☎ 718-888-9022 5/1/14-----------------------------------------------------------------------------------------------------------------------------------------------------------------------------------------------------------------------------------6/31/16

예성 데이케어 1-4세, 제한된 인 원수, 건강 식단, 1:1 교육방식, 풀타임가능, 차량운행 가능, 뉴욕 주 그룹 홈 데이케어 라이센스, 사 랑과 정성으로 보살펴 드립니다. (45-34Utopia Pkwy) ☎718-687-3533

3/1/15------------------------------------------------------------------------------------------------------------------------------------------------------------------------------------------------------------------------------------------

프랜시스 영재스쿨 주정부 정식인가된 유치원으로 무료 UPK와 어릴때 부터 체계적 인 교육으로 2세부터 방과후학교 까지 정성껏 돌봐 드립니다. ☎718-578-7828

섹소폰, 트럼펫, 플룻, 레슨. 초보 부터 리즈마6. 어른도 지도함, 작 은 파티 출장 연주. 중고 빈티지 악기 판매 ☎ 917-678-2957 6/4/16----------------------------------------------------------------------------------------------------------------------------------------------------------------------------------------------------------------------------------11/3/16

[영어 북클럽] 최복림 작가 운영 그 달의 영어 소설을 읽고 토론 현재 8-10 회원이 출석 회비 월 $10 매 달 첫 수요일 저녁 6-8 시 ☎917-574-9676

뉴저지 코스모 뷰티 아카데미 Cosmo beauty Academy. 토탈 네일 피부미용 헤어. 뉴저지 최고의 한국인 선생님. 러시안 볼륨 속눈썹 교육. 뉴저지 주정부 정식 인가 학교. 미용라이센스 취득. 431 N Midland Saddle Brook NJ 한국어☎201-803-9311 영어☎201-797-8800

6/28/16----------------------------------------------------------------------------------------------------------------------------------------------------------------------------------------------------------------------------------7/27/16

05/07--------------------------------------------------------------------------------------------------------------------------------------------------------------------------------------------------------NYF----------------------------op

왕초보 영어 특별지도 월 $99부 터 그룹지도, 시민권반, 회화반, 쓰고 읽기반, 수준별 개인지도 ☎ 718-915-2000

신개념 속눈썹 교육과 도매판매 ◆뉴욕 네일협회-매주 월요일 10am-12pm 교육 ◆뉴저지 교 육(매일교육) 속성만: 10am12pm, 8pm-10pm / 30분에 끝나 는 테크닉 / 1일 교육후 영업가능 / 취업과 수료증, 출장교육 가능 La bella7 ☎201-957-3737

--------------------------------------------------------------------------------------------------------------------------------------------------------------------------------------------------------------------------------------------

05/07--------------------------------------------------------------------------------------------------------------------------------------------------------------------------------------------------------NYF----------------------------op

9/23/17--------------------------------------------------------------------------------------------------------------------------------------------------------------------------------------------------------------구부-서비스------------------

<7일오픈 데이케어> 뉴욕주 정부 인가. 20년 경험을

벼룩시장 광고 벼룩시장 줄광고 $25 박스광고$45

718-359-0700

경순피아노 부담없는 레슨비 즐겁고 재밌게, 국내외 콩쿨입상 자 배출, 음악회 수시게최

05/07--------------------------------------------------------------------------------------------------------------------------------------------------------------------------------------------------------NYF----------------------------

op

명품 가죽백 수리, 주문, 생산. 핸드백 교실 603B Broad Ave. Ridgefield NJ ☎917-355-6151 10/25/16-------------------------------------------------------------------------------------------------------------------------------------------------------------------------------------------------------------------------------11/24//17

6/11/16----------------------------------------------------------------------------------------------------------------------------------------------------------------------------------------------------------------------------------9/10/16

7/4/17---------------------------------------------------------------------------------------------------------------------------------------------------------------------------------------------------------------------------------7/29/17

영어 실력이 부족한 초/중고생, 한국에서 갓 유학 또는 이민 온 학 생들 일대일 집중지도해 드립니 다. ☎ 718-279-2685

7/4/17------------------------------------------------------------------------------------------------------------------------------------------------------------------------------------------------------------------------------------5/8/18

면허취득과 동시에 취업 연결. 토탈 면허 / 스킨 케어 면허. NY 주 미용감독 이선주 직강. 미용연

수강생 모집 양초 만들기 천연 화장품 만들기 핸드메이드비누 만들기 비즈, 원석으로 쥬얼리 만들기 기초반(취미반), 중급반 고급반(부업, 창업) 초,중,고 학생 , 주부, 직장인 모두 환영(문자 메세지 바람) ☎718-213-1820 052317-------------------------------------------------------------------------------------------------------------------------------------------------------------------------------------------------------------------------------------GU

Will 번역 통역 이민 서류, 법률 서류, 법정 통역, 비즈니스 통역, 논문, 중국어 통 역, 번역 각종 서류 모든 것 (영어 그룹 지도) leenewyork@hotmail.com ☎ 646-640-6204 ☎ 917-849-9266 1/5/16------------------------------------------------------------------------------------------------------------------------------------------------------------------------------------------------------------------------------------2/4/16

B35


B36

Tuesday, April 03, 2018

www.FindAllNY.com


www.FindAllNY.com

2018년 4월 03일 (화)

B37

유학생을 위한 특별 이벤트 유학생들을 위한 최상의 선택

스 케 줄

Best Choice for International Student

저렴한 학비

월요일-목요일/토요일

Affordable Tuition

오전/오후 /저녁

시 간 자 율 선 택

편리한 교통

실력있는 강의진!

Easy Transportation

Professional Teachers

소그룹 강의

Small Group Teaching

F-1학생,전학,신분변경 www.studyoncampus.com

Tel:

(718) 303-0985

Fax: (917) 563-5707 Email: infoflushing@studyoncampus.com

132-71 Maple Ave. Suite 1A, Flushing NY 11355 www.facebook.com/campuseducation

campus_education


B38

Tuesday, April 03, 2018

www.FindAllNY.com

물품매매

BUY&SELL 귀금속 | 상업용품 | 무빙세일 | 물건수리 | 악기

입냄새 제거에 좋은 3가지 차

평소에는 느끼지 못하는 냄새, 사회생 활을 하다 보면 내게 너무 익숙해져서 남 들만 맡을 수 있는 입 냄새에 낭패본 적 이 있을 것이다. 꼼꼼히 닦아도 구강 내 의 위생관리만이 아닌 체내 장부의 기능 개선을 하고 식습관을 고치면 큰 효과를

볼 수 있다. 민들레차 민들레는 위와 간의 열을 내려주며 입 냄 새를 없애는데 도움을 준다. 이뿐만 아니 라 소염작용, 이뇨작용, 면역력 증강 등 건강 회복에 크게 도움을 주는 식품이다.

매실차 알칼리성 식품인 매실은 해독 작용이 있어 식중독 등을 치료할 때 좋다. 매실 에 나오는 신맛은 소화기관을 정상화해 주어 소화불량과 위장 장애를 없애주어 잘 섭취하면 건강뿐만 아니라 체내 장부 문제로 생겨난 입 냄새를 없애는데 도와 준다 솔잎차 솔잎은 혈액순환,당뇨에 도움을 주며 모세혈관을 튼튼하게 만든다. 칡뿌리차 칡뿌리는 위장의 열을 내려준다. 또한, 갈증 해소를 도와 소장 기능을 원활하게 한다. 또한, 소화를 도와주며 숙취 해소 를 돕는다.

피로회복부터 감기예방까지, 감귤의 3가지 효능

많은 사람의 사랑을 받고 있는 감귤은 각 종 비타민이 풍부하게 들어있어 많은 이 들의 건강을 지켜준다. 계절이 바뀌는 지 금에 자주 먹으면 좋은 감귤, 어떤 효능

이 있는지 알아보자. 감기 예방  감귤에는 비타민 C가 풍부하게 들어 있다. 하루 4개만 섭취해도 하루 비타민

C 섭취량을 먹게 된다. 계절이 바뀌어 면 역력이 떨어지기 쉬운 요즘, 감귤을 챙겨 먹고 감기예방을 해보자.   피로 회복 귤에 들어있는 비타민 C와 구연산은 피 로 해소와 피부미용에 좋다. 신맛을 내는 구연산은 물질대사를 촉진해 피로를 풀 어주며 피를 맑게 해준다. 변비  귤의 하얀 속껍질은 변비 예방에 도 움을 준다. 귤의 하얀 속껍질에는 식이섬 유인 펙틴이 풍부하게 들어있어 변비를 예방하고 식이섬유는 독성물질을 몸 밖 으로 배출해준다.

의자 천갈이 전문

중고 네일 용품

네일의자 페디케어체어 식탁의자 미용실의자 마사지 스파 매매 맛사지 침대 부박이소파 "쿠션 주문제작" "천가리전문업체" 네일가구 수리해드립니다. 저렴한 비용으로 수리해드림

중고 페디큐어판매 및 구입 다량보유(6개월1년 보증) 마사지 스파 매매 설치,수리,전문업체 네일가게용품 (판매및구입) 가게,주택 (전기,플러밍 모든 공사) 211-63 46th Ave Bayside 11362

347-786-0111 646-581-1200

718-986-2442

유로피안 그림

도자기, 꽃병

각종 유로피안 그림들

도자기, 꽃병 동양란/ 일반 화초/ 분재 분 (pots) 한국산 저렴하게 팝니다. (동양란도 있습니다)

(유화) 판매 표구도 해드립니다

347-909-1969

646-460-6515

삼성김치 냉장고

세탁기 / 건조기

미주총판 및 에프터 서비스, 최고의 성능, 디자인의 삼성김치냉장고 판매 및 에프터 서비스를 책임집니다

라운드리하실 분 파격세일, 가정용 세탁기/ 드라이어 보유 모든 상업용 가정용 전문, 세탁기계 수리 설치 관리

844-651-8282

201-618-8497

피아노 조율

싱글매트 구함

외국인 음악가도 인정

조율사 제임스 박

가볍고 온열 되는 싱글 사이즈 매트 구합니다. (플러싱 주변 지역 픽업 가능한 곳)

917-385-8239

201-688-7877

야마하공인


www.FindAllNY.com

2018년 4월 03일 (화)

벼룩시장 광고

표고 농사

벼룩시장 물품/ 자동차 광고 무료 뉴욕&뉴저지 배포

비닐하우스 공간 사용하세요. 씨앗도 무료 유기농 농사 가르쳐드립니다.

2도어&아이스 메이커 기능 있는 냉장고를 구합니다

718-359-0700

201-757-1835 플러싱지역 페이셜침대 스티머 아주새것 무료로 드림 (메세지 요망 ) ☎718-353-4804

냉장고 구함

B39

김치냉장고 구함

네일기계 구함

상태 좋은 김치 냉장고 구합니다.

네일 손톱가는 기계 좋은 가격에 주실 분

좋은 가격에 주실 분

연락 부탁드립니다

347-535-3318

718-504-0548

718-751-9381

씰리침대. 새것 싱글199불 더블289불 딜리버리 가능 20불 ☎718-229-0089

박이소파 쿠션 / 주문제작 천가 리 전문업체 네일가구 수리해드 립니다. 저렴한 비용으로 수리해 드립니다 ☎347-786-0111 ☎646-581-1200

대박 이사짐 센타 요즘 힘드시죠. 저렴하게 옮겨드립니다. 가정집 학생 사무실 이삿짐 전문 Mr. 강 ☎ 646-294-0022

-2/24/18-------------------------------------------------------------------------------------------------------------------------------------------------------------------------------------------------------------------------서비스4/3/18--

밴 차 뒷자석 의자 삽니다. ☎917-567-7409

홈패션이나 인형옷 만들 수 있는 고급재료 들을 착한값에 판매합니다. $25 ☎516-637-2611 ☎516-724-1171 ---3/24/18---------------------------------------------------------------------------------------------------------------------------------------------------------------------------------------------------서비스--------4/21/18-------------

---3/24/18---------------------------------------------------------------------------------------------------------------------------------------------------------------------------------------------------서비스--------4/21/18-------------

네일가게 테이블 환풍기 $100 ☎917-495-2764 ---3/24/18---------------------------------------------------------------------------------------------------------------------------------------------------------------------------------------------------서비스--------4/21/18-------------

중고피아노 무료로 드립니다. 튜닝 필요할 수도 있습니다. 가져 가실 분 연락 주세요. ☎917-284-1123 ---4/3/18---------------------------------------------------------------------------------------------------------------------------------------------------------------------------------------------------서비스--------4/28/18-------------

퀸스에 위치한 귀국이사 급매 가구 전자재품 생활용품 부엌살림 등등 (주시는 대로 받음) ☎718-739-2820

플러싱 164가 무빙세일합니다 무빙세일 합니다 냉장고중간, 새것 $80 코웨이물머신 8개월 사용 $800 벽 TV 작은것 $20 벽 TV 큰것 벽거리있음 $150 전기난로 무료 고급그릇 새것 한개당 50전 에어컨 싱글침대 등 무료로 드림 ☎718-888-1929 --3/10/18------------------------------------------------------------------------------------------------------------------------------------------------------------------------ ----------------------------------------서비스------4/7/18-----

무빙세일합니다 소파베드(천) $250/가죽소파( 검정)$250/가죽의자 $100/책상 (큰것) $200/회의용큰것 $250 퀸베드(메트리스포함) $300 서랍장(옷장) $250 작은것 $100 식탁(의자6개포함) $350/찬장 $250/냉장고(거의 새것) $350 세탁기(거의 새것) $300/TV $50/마이크로웨이브 $50 온돌침대 $600/컴퓨터 $100 #가구 구매시 식기 집기 그림 무료로 드립니다. 1 Great Sun Terrace Wharton NJ 07885 ☎201-835-8397

---3/20/18---------------------------------------------------------------------------------------------------------------------------------------------------------------------------------------------------서비스--------4/17/18-------------

무료로 드립니다 쇼파 소케이스 진열장 드립니다 3/17-3/25/18 까지 드립니다 ☎347-416-1566

플러싱 144가 무빙세일 합니다 화장대 쇼파 사이드테이블 커피테이블 카펫 ☎646-484-1214

음이온 찜질방 (썬조이) 고령토 볼 흙에 관심을 가지고 투자를 하 실분이나 별도로 고령토 볼 을 구 입하시고 싶으신 분은 연락 주세 요. Sam ☎914-582-8904 -------------------------------------------------------------------------------------------------------------------------------------------------------------------------------------------------------------------------------------------JE

피아노 매매 전문가용 5'10" kawai grand piano $6500 ☎917-385-8239 8/26/17------------------------------------------------------------------------------------------------------------------------------------------------------------------------------------------------------------정이사----------------------

프로죤 요구르트 기계 거의 사용 안한 새것 ☎917-418-9396

02/04/05-J-------------------------------------------------------------------------------------------------------------------------------------------------------------------------------------------------------------------------------------

마이크로웨이브 중간 사이즈 $50 ☎718-359-0700

의자 천가리 전문업체 네일의자, 페디케어체어, 식탁의 자, 미용실의자,맛사지 침대, 부

5/13/17------------------------------------------------------------------------------------------------------------------------------------------------------------------------------------------------------------------------------------Free

피아노 조율 수리 전문. 외국인 음악가도 인정하는 야마하 공인 조율사 제임스박 ☎917-385-8239 -------------------------------------------------------------------------------------------------------------------------------------------------------------------------------------------------------------------------------------------JE

피아노 관악기 현악기 출장수리. 피아노 조율 및 모든 악기 완벽히 수리. 저렴하게 봉사함 ☎917-678-2957 --------------------------------------------------------------------------------------------------------------------------------------------------------------------------------------------------------------------------------------------

4/4/17---------------------------------------------------------------------------------------------------------------------------------------------------------------------------------------------------------------------------------------e

---------------------------------------------------------------------------------------------------------------------------------------------------------------------------------------------------------------------------------------------

천리마 이사 중소형, 유학생, 장 거리, 이사전문 업소. IKEA 픽업 앤 딜리버리 전문 ☎718-902-4884 --------------------------------------------------------------------------------------------------------------------------------------------------------------------------------------------------------------------------------------2/3/18-

5/13/17-------------------------------------------------------------------------------------------------------------------------------------------------------------------------------------------------------------------------------------PJ

LG 에어컨 12000 BTU $100/빨 간색 커피 포트 $25/ 컴퓨터 모니 터 3대 각$20 저렴하게 팝니다 (벼룩시장)☎718-359-0700

---3/17/18---------------------------------------------------------------------------------------------------------------------------------------------------------------------------------------------------서비스--------4/14/18-------------

----------------------------------------------------------------------------------------------------------------------------------------------------------------------------------------------------------------서비스---------------------

4/1/15---------------------------------------------------------------------------------------------------------------------------------------------------------------------------------------------------------------------------------03/31/16

Kawai Baby Grand 피아노 급매 5'7" Model G2N 검은색 거의 신 품(6개월사용) 신품과 동일 상태 최상의 소리 $8,500 ☎201-707-0561

--3/10/18----------------------------------------------------------------------------------------------------------------------------------------------------------------------------------------------------------------서비스------4/7/18-----

무빙세일 큰 가죽쇼파세트. TV. 자전거운동기구. 오디오세트.진열장. 1인용침대.한국단지류 등 기타... ☎201-978-7320 ☎201-803-7879

-------------------------------------------------------------------------------------------------------------------------------------------------------------------------------------------------------------------------정이-----------------

--3/10/18----------------------------------------------------------------------------------------------------------------------------------------------------------------------------------------------------------------서비스------4/7/18-----

중고 페티큐어 판매(구입) 다량보유(6개월-1년 보증), 설치, 수리, 전문업체. 네일가게 용품 (판매및구입)가게, 주택(전기,플러 밍)모든 공사. 211-63 46th Ave Bayside 11362 ☎ 718-986-2442 -

---------------------------------------------------------------------------------------------------------------------------------------------------------------------------------------------6/30/18--------------------

깡통밴 이삿짐 미국 전지역 성심 성의껏 최선을 다합니다. 장/단거리 이삿짐, 창 고, 사무실, 유학생 이사, 작은짐( 룸메이트) ☎718-813-9696 ------------------------------------------------------------------------------------------------------------------------------------------------------------------------------------------------------------------------------------------

SK플세탁기/드라이어 설치 수리 판매 가정용, 상업용-Wascomat 50파운드 7대, 35파운드 14대, 28파운드 14대18파운드 7대, Dryer 2층 15대, LG 드럼용 세탁 기/드라이어 ☎201-618-8497 ☎201-313-1686 ---------------------------------------------------------------------------------------------------------------------------------------------------------------------------------------------------------------------------------------------


B40

Tuesday, April 03, 2018

www.FindAllNY.com

자동차

CARS/AUTOS 자동차 튜닝 | 수리 | 대형밴 | 트럭 | 깡통밴 | 운전보험 | 운전학원

45%off차 출장수리

98' 지프 체로키

04' 지프 체로키

새차 중고차 구입

페이먼남은차인수

차매매 도와드림

컴퓨터 첵업 무료/ 최저가 보장 브레이크 $30 팬벨트 $60 타이밍 벨트 $200 튠업 $150

1998 JEEP GRAND CHEROKEE 100,500 mile 상태양호 $2,300

2004 JEEP GRAND CHEROKEE 16만 마일 $1,500

융자나 리스 하실분 크레딧 점수 낮으신분 유학생 신분 상담 환영 리스리턴 무료대행 NY MOTO

페이먼 남은차 인수합니다.

크레딧이 안좋으시거나 다운페이 자금이 없으셔도 괜찮습니다. (NY, NJ)

917-681-2281

718-445-6565

718-570-5959

718-737-2228

마일리지 86700 $13500 네고 가능 ☎917-854-1213 -3/6/18-------------------------------------------------------------------------------------------------------------------------------------------------------------------------------------------------------------------------서비스-3/27/18--

45% Off 자동차 출장 수리 컴퓨터 첵업 무료. 최저가 보장. 브레이크 $30 / 팬벨트 $60 / 타이밍 벨트 $200 / 튠업 $150 ☎ 917-681-2281 --------------------------------------------------------------------------------------------------------------------------------------------------------------------------------------------------------------------------------------------

2010 BENZ GLK350 4WD 72,000 miles Best Condition $13,500 ☎917-470-8119 -3/3/18-------------------------------------------------------------------------------------------------------------------------------------------------------------------------------------------------------------------------서비스-3/27/18--

2004 JEEP GRAND CHEROKEE 16만 마일 $1,500 ☎718-570-5959 ---------------------------------------------------------------------------------------------------------------------------------------------------------------------------------------------------------------------------------------boss---

2010년도 BOLKS 하얀색 승용차 마일리지 50,000 마일 가격 8천불 ☎917-495-2764 -3/3/18-------------------------------------------------------------------------------------------------------------------------------------------------------------------------------------------------------------------------서비스-3/27/18--

2003 혼다파일럿 14만 마일 $1,300 ☎917-647-1123 -3/20/18-------------------------------------------------------------------------------------------------------------------------------------------------------------------------------------------------------------------------서비스-4/17/18--

2008년 현대 앵커리지 $3500 120마일 컨디션양호 딜리버리하시는분 좋음 ☎917-440-7087 -3/10/18-------------------------------------------------------------------------------------------------------------------------------------------------------------------------------------------------------------------------서비스-4/7/18--

2008년 포르쉐 카이엔

1998 JEEP GRAND CHEROKEE 100,500 마일리지 상태양호 $2,300 ☎718-445-6565 ---------------------------------------------------------------------------------------------------------------------------------------------------------------------------------------------------------------------------------------------

2017 LEXUS NX200T AWD 36개월 10K M/Y $2499 DOWN $289/M ☎718-362-3555

------------------------------------------------------------------------------------------------------------------------------------------------------------------------------------------------------------------------------------------NY

------------------------------------------------------------------------------------------------------------------------------------------------------------------------------------------------------------------------------------------NY

2018 기아 세도나 미니밴 $1000 다운하시고 매달 $269 36개월 10K/Y ☎201-310-8800

2018 PATHFINDER S AWD $1000 DOWN $289/M 36MO 12K/Y 7인승 ☎201-310-8800

------------------------------------------------------------------------------------------------------------------------------------------------------------------------------------------------------------------------------------------NY

------------------------------------------------------------------------------------------------------------------------------------------------------------------------------------------------------------------------------------------NY

2018 기아 소렌토 AWD $1800 DOWN $219/M 36개월 10K/Y ☎718-737-2228

2018 NISSAN MURANO $2000 DOWN $239/M 36MO 12K/Y ☎718-362-3555

------------------------------------------------------------------------------------------------------------------------------------------------------------------------------------------------------------------------------------------NY

2018 KIA SPORTAGE AWD $1400 DOWN $199/M 36MO 10K/Y ☎347-494-1287 ------------------------------------------------------------------------------------------------------------------------------------------------------------------------------------------------------------------------------------------NY

2018 NISSAN ROGUE SV $1000 DOWN $199/M 36MP 12K/Y ☎718-737-2228 ------------------------------------------------------------------------------------------------------------------------------------------------------------------------------------------------------------------------------------------NY

---------------------------------------------------------------------------------------------------------------------------------------------------------------------------------------------------------------------------------------------

2018 KIA FORTE $1200 다운 $119/M 36개월 10K/Y ☎718-362-3555

2018 NISSAN SENTRA SV $1000 다운 하시고 다달이 $139 36개월 12K/Y ☎347-494-1287 ------------------------------------------------------------------------------------------------------------------------------------------------------------------------------------------------------------------------------------------NY

------------------------------------------------------------------------------------------------------------------------------------------------------------------------------------------------------------------------------------------NY

2018 KIA OPTIMA $2000 다운페이 $139/M 36개월 10K/Y ☎718-737-2228

2018 NISSAN ALTIMA $1000 DOWN $199/M 36MO 12K/Y ☎718-362-3555

------------------------------------------------------------------------------------------------------------------------------------------------------------------------------------------------------------------------------------------NY

2018 NISSAN MAXIMA $1800 DOWN $219/M 36MO 12K/Y☎201-210-5855

승용차나 4x4.

646-294-0022

516-707-0709

$1000 DOWN $219/M 36MO 10K/Y☎718-737-2228

36MO 10K/Y

------------------------------------------------------------------------------------------------------------------------------------------------------------------------------------------------------------------------------------------NY

------------------------------------------------------------------------------------------------------------------------------------------------------------------------------------------------------------------------------------------NY

2018 TOYOTA CAMRY $1500 다운 하시고 다달이 $179 36개월 $10K/Y ☎347-494-1287

2018 GRAND CHEROKEE $3000 다운하시고 매달 $349 36MO 10K/Y ☎718-362-3555

------------------------------------------------------------------------------------------------------------------------------------------------------------------------------------------------------------------------------------------NY

------------------------------------------------------------------------------------------------------------------------------------------------------------------------------------------------------------------------------------------NY

2018 HONDA ACCORD $2000 다운 하시고 다달이 $239 36MO 10K/Y ☎201-310-8800

2018 CHRYSLER MINIVAN $2000 다운하시고 매달 $289 36MO 10K/Y ☎718-737-2228

------------------------------------------------------------------------------------------------------------------------------------------------------------------------------------------------------------------------------------------NY

------------------------------------------------------------------------------------------------------------------------------------------------------------------------------------------------------------------------------------------NY

2018 HONDA CRV AWD $2000 DOWN $259/M 36MO 10K/Y ☎718-737-2228

2018 VOLKSWAGEN 승용차 $1800 다운하시고 매달 $119 36MO 10K/Y ☎347-494-1287

------------------------------------------------------------------------------------------------------------------------------------------------------------------------------------------------------------------------------------------NY

------------------------------------------------------------------------------------------------------------------------------------------------------------------------------------------------------------------------------------------NY

2018 HONDA ODYSSEY $2000 다운하시고 매달 $299 36MO 10K/Y ☎347-494-1287

2018 VOLKSWAGEN PASSAT $1800 다운하시고 매달 $139 36MO 10K/Y ☎718-737-2228

------------------------------------------------------------------------------------------------------------------------------------------------------------------------------------------------------------------------------------------NY

------------------------------------------------------------------------------------------------------------------------------------------------------------------------------------------------------------------------------------------NY

2018 HONDA PILOT $2000 다운하시고 매달 $349 36MO 10K/Y ☎718-362-3555

2018 LEXUS RX350 AWD $2500 DOWM $359/M 36MO 10K/Y ☎347-494-1287

------------------------------------------------------------------------------------------------------------------------------------------------------------------------------------------------------------------------------------------NY

------------------------------------------------------------------------------------------------------------------------------------------------------------------------------------------------------------------------------------------NY

2018 HONDA CIVIC LX $1500 DOWN $189/M

2018 LEXUS ES350 $2000 DOWN $299/M

☎201-210-5855

------------------------------------------------------------------------------------------------------------------------------------------------------------------------------------------------------------------------------------------NY

2018 TOYOTA COROLLA $1000 DOWN $159/M 36MO 10K/Y ☎718-737-2228 ------------------------------------------------------------------------------------------------------------------------------------------------------------------------------------------------------------------------------------------NY

2018 TOYOTA HIGHLANDER 7인승 $2000 다운 하시고 다달이 $249 36MO 10K/Y ☎347-494-1287 ------------------------------------------------------------------------------------------------------------------------------------------------------------------------------------------------------------------------------------------NY

2018 TOYOTA SIENNA LE $2500 DOWN $259/M 36MO 10K/Y ☎718-362-3555 ------------------------------------------------------------------------------------------------------------------------------------------------------------------------------------------------------------------------------------------NY

2018 RAV-4 AWD


www.FindAllNY.com

2018년 4월 03일 (화)

현대차, '2018 뉴욕모터쇼' 참가 싼타페·K9·제네시스 콘셉트카 전시

현대자동차가 ‘2018 뉴욕 국제 오토쇼’에 참가 해 현지 판매 전략 차종을 대거 선보였다. 현대차는 뉴욕 제이콥 재비츠센터에서 열린 뉴 욕모터쇼를 통해 현대차 신형 싼타페를 비롯해 코나 일렉트릭, 기아차 더 K9을 공개했다. 제네 시스는 전기차 기반 ‘에센시아 콘셉트’를 전시 한다. 현대자동차는 6년 만에 새롭게 선보이는 4세대 싼타페를 북미 시장에 처음 공개했다. 싼타페는 현대차 미국 시장 주력 모델이다. 2000년 미국 시장에 진출한 싼타페는 미국 현지 누적 판매량이 150만대를 돌파하는 등 대표적인 스포츠유틸리티차량(SUV)으로서 활약하고 있 다. 지난해에는 13만대 이상이 판매됐다. 이와 함께 코나 일렉트릭도 북미 시장에 데뷔 했다. 이 차는 64kWh의 배터리와 최대 출력 150kW의 전용 모터를 탑재했으며, 1회 충전으 로 미국 기준 약 402km까지 주행이 가능하다.

현대차는 이번 뉴욕 모터쇼에서 ▲신형 싼타 페, 투싼 페이스리프트, 코나 등 신차 6대 ▲넥 쏘, 아이오닉 등 친환경차 4대 ▲벨로스터, 코 나, 액센트 등 양산차 8대 등 총 18대의 차량을 전시한다. 기아자동차는 ‘더 K9(현지명 K900)’을 소개했 다. K9은 올해 4분기 중 미국 시장에 출시될 예 정이다. 기아차는 이외에도 ▲THE K9, 더 뉴 K5, 더 뉴 카니발 등 신차 4대 ▲프라이드, 포르테, K7, 스팅어, 스포티지, 쏘렌토 등 양산차 14대 ▲스 팅어 SEMA 쇼카 2대 등 총 25대의 차량을 선 보인다. 별도의 브랜드인 제네시스는 전기차 ‘에센시 아 콘셉트’를 처음 공개했다. 제네시스 브랜드 는 이번 뉴욕전시회에 전기차 기반의 GT 콘셉 트카 에센시아 콘셉트 1대와 G70 2대, G80 스포 츠 1대, G90 1대 등 총 5대의 차량을 전시했다.

------------------------------------------------------------------------------------------------------------------------------------------------------------------------------------------------------------------------------------------NY

36MO 10K/Y☎718-737-2228 ------------------------------------------------------------------------------------------------------------------------------------------------------------------------------------------------------------------------------------------NY

2018 LEXUS NX300 AWD $2000 DOWN $299/M 36MO 10K/Y☎718-362-3555

2018 BENZ CLA250 AWD $2500 DOWN $299/M 36MO 10K/Y ☎201-310-8800 ------------------------------------------------------------------------------------------------------------------------------------------------------------------------------------------------------------------------------------------NY

------------------------------------------------------------------------------------------------------------------------------------------------------------------------------------------------------------------------------------------NY

2018 ACURA MDX AWD $3000 DOWN $389/M 36MO 10K/Y ☎718-737-2228

2018 KIA OPTIMA $2000 다운페이 $139/M 36개월 10K/Y ☎718-737-2228

------------------------------------------------------------------------------------------------------------------------------------------------------------------------------------------------------------삭제해도됨--하나더넣은것----------NY

B41


B42

Tuesday, April 03, 2018

www.FindAllNY.com


www.FindAllNY.com

2018년 4월 03일 (화)

테슬라 시험주행 중 운전자 사망 "차량은 사고당시 자율주행모드 켜져 있어"

최근 캘리포니아주 고속도로에서 콘크리트 중 앙분리대와 충돌해 화재가 발생, 운전자가 사망 한 테슬라 차량은 자율주행 기능 상태에서 달리 고 있었던 것으로 나타났다. 이에 따라 테슬라 의 자율주행 기술 안전성에 대한 의문이 더 커 지고 있다. CNBC 등에 따르면 테슬라는 홈페이지에 올 린 성명에서 “운전자는 운전대에 손을 올리라는 음성·시각 경고 사인을 몇 차례 받았지만 충돌 이전 6초동안 운전자의 손은 핸들에서 감지되지 않았다”면서 이같이 밝혔다. 테슬라는 또 “당시 운전자가 충돌 전 5초의 시

간 여유와 150m의 장애물이 없는 거리를 남겨 두고 있었지만 차량 기록에 따르면 그는 아무런 조치를 하지 않은 것으로 드러났다”고 전했다. 다만 테슬라는 이번 성명에서 자율주행 시스 템이 왜 도로분리대를 감지하지 못했는지는 설 명하지 않았다. 테슬라 모델 X는 지난주 캘리포니아 마운틴 뷰 고속도로에서 도로 분리대를 들이받고 다른 차량 두 대와 연쇄 충돌한 뒤 발화했다. 이 사 고로 38세의 운전자는 병원에 이송됐으나 결국 숨졌다.

B43


B44

Tuesday, April 03, 2018

www.FindAllNY.com


www.FindAllNY.com

2018년 4월 03일 (화)

B45


B46

Tuesday, April 03, 2018

www.FindAllNY.com

구글에서 제이스가라지 검색하세요

내차 수리 어디로 가야할까? ONE-STOP SERVICE

이제 고민말고

제이스가라지로 오세요

사고를 당하셨습니까? 정비가 필요하십니까?

GLOABLE PAINT

최신식 열처리 스프레이 부스 2개의 스프레이부스로 신속,정확 자동차 구입,판매,렌트카 토잉,보험클레임,정비,바디,프레임,오토페인팅,디테일링까지!!

이 모든것을 한곳에서!!!

고객의 소중한 차 최고의 기술진 과 20 여년의 노하우로 정성껏 모시겠습니다.

s dean st

s van brunt st

w forest ave

grand ave s dean st

rt 4

 201.816.1161  201.816.9511

e palisades ave

무료견적 / 점검

제이스가라지

GWB

CROWN PLAZA

제이스가라지 www.jgausa.com paramus Jaygarageinc@gmail.com 267 S VAN BRUNT ST ENGLEWOOD NJ


www.FindAllNY.com

2018년 4월 03일 (화)

A27


A28

Tuesday, April 03, 2018

www.FindAllNY.com

'포카리CF'→'연애시대'→'예쁜누나' 손예진, 다양한 인생캐릭터 제조기 인기

배우 손예진이 또 인생 캐릭터를 경신했다. '포카리스웨트' CF로 데뷔와 동시에 깊은 인상 을 남겼던 손에진은 2001년 MBC '맛있는 청혼' 이 히트하며 단숨에 인지도를 높였다. 그리고 영 화 '클래식' '내 머리 속의 지우개'로 청순미와 감 성 연기를 동시에 뽐내며 20대 여배우로는 독보 적인 입지를 구축했다. 그러다 2006년 SBS '연애 시대'에서 극강의 감성 연기를 선보이며 '연기력 과 미모를 동시에 갖춘 몇 안되는 배우'로 인정 받았다. 이후로도 손예진은 승승장구했다. 2008 년 청룡영화상에서 '아내가 결혼했다'로 여우주 연상을 수상했고, '해적:바다로 간 산적' '비밀은 없다' '덕혜옹주'로 각종 영화제 여우주연상을

휩쓸며 명실상부한 '충무로퀸'으로 자리잡았다. 그런 손예진이 2013년 KBS2 '상어' 이후 5년 만 에 출연한 JTBC '밥 잘 사주는 예쁜 누나'에서. 명불허전 연기력으로 시청자의 기대를 완벽하 게 충족시키며 또 다른 인생작 탄생을 예고했다. 이처럼 손예진은 단 한회 동안에도 팔색조 매 력을 뽐내며 시청자를 사로잡았다. 막춤부터 일 상연기, 파격적인 짜증연기를 찰떡같이 소화하 며 시청자에게 웃음을 안겼다. 그러면서도 사랑 에 빠져드는 여자의 심리를 디테일하게 그려내 며 설렘 지수까지 높였다. 정해인과의 아슬아슬 한 연상연하 케미는 보는 이들의 잠든 연애세포 에 심폐소생을 불어넣기 충분했다.


www.FindAllNY.com

2018년 4월 03일 (화)

A29

성추행 사과로 연예인 김생민, 25년 공든탑이 무너졌다 연예인이자 방송인 김생민이

게 성추행을 당했다"고 주장했

성추행 의혹에 휘말렸다. 김생

다. 김생민은 노래방 복도에서

출연 프로그램에서 전면 하차

민은 이에 공식사과, 의혹을 인

완력으로 A씨를 제압하며 성

하고 자숙의 시간을 맞는다고

정했다. 이에 대중은 큰 배신감

추행했다. A씨는 성추행 피해

해도 김생민에게는 금전적 손

에 빠졌다. 바르고 성실한 이미

사실을 고발했지만 오히려 업

해배상 위기가 예상된다.

지로 데뷔 25년 만에 처음 전성

무에서 제외되는 등 2차 피해

김생민은 여행 이사업체 게임

기를 맞은 김생민이었기에, 그

를 겪어 방송가를 떠나야 했다.

등 12개에 달하는 광고를 촬영

배신감과 실망감은 더욱 크게

김생민이 출연 중인 프로그램

했다., 김생민이 최소 10억 원

은 KBS2 '연예가중계' '김생민

대에 달하는 위약금을 물어줘

한 방송사 스태프로 일했던

의 영수증', MBC '출발 비디오

야 할 것이라는 게 업계 관계자

A씨는 "2008년 가을 김생민에

여행' '전지적 참견 시점', SBS

의 의견이다.

다가왔다.

'TV 동물농장', 등 7개다.


A30

Tuesday, April 03, 2018

www.FindAllNY.com


www.FindAllNY.com

2018년 4월 03일 (화)

법률·변호사

A31

LAW·ATTORNEY 상법 | 이민법 | 형사/민사법 | 교통사고/사고상해전문

"공적보조 받으면 영주권 못받아" 초강력 규제 파문 영주권 신청시 근로소득 세금공제, 오바마케어 수혜 등 규제 추진 223페이지 개정안, 연방의회 승인없이 행정규칙 개정으로 시행가능 트럼프 행정부가 ‘근로소득세금 공제’(EITC)나 ‘건강보험 보조 금’(Health Insurance Subsidy) 등 ‘ 비현금 공공혜택’을 받은 전력이 있 는 이민자에게는 영주권을 거부하는 사상 초유의 강력한 합법이민 규제안 을 시행할 것으로 알려져 파장이 예상 된다. 워싱턴 포스트는 연방 이민당국이 ‘ 비현금 복지혜택’을 받은 전력이 있는 경우, 합법신분이라도 영주권 취득을 금지할 수 있도록 하고, 정도가 심한 경우 추방도 강제할 수 있는 새로운 이 민행정규칙 개정안을 마련하고 있다 고 전했다.

영주권 심사 과정에서 자격기준을 높 이는 것은 연방의회의 입법절차 없이 행정규칙 개정만으로도 시행할 수 있 어 이같은 방식의 영주권 발급 규제안 은 조만간 시행될 수 있을 것으로 보 인다. 연방 이민서비스국(USCIS)은 합법 이민자가 어떤 형태로든 ‘공적 부조’ 나 ‘공공 혜택’을 받은 전력이 있는 경 우 영주권을 발급하지 않는 것을 골자 로 한 223페이지 분량의 방대한 규칙 개정안을 마련했으며, 조만간 연방관 보 발표절차를 거쳐 시행에 들어갈 계 획이다. 취업비자나 학생비자 신분으로 체류

하다가 영주권을 신청하는 이민자들 중에는 세금 보고시 EITC 혜택을 받 거나 비현금 형태의 다양한 복지혜택 을 받는 경우가 많은데, 개정안이 시행 될 경우 상당수의 이민신청자들이 영 주권 취득에 어려움을 겪게 될 것으로 우려된다. 합법적인 권한으로 여겨졌던 세금공 제 혜택이나 건강보험 보조금 수혜가 영주권 거부사유가 될 수 있다는 것이 다. 또, 트럼프 행정부는 일부 영주권 신 청자에게 최소 1만달러의 보증금을 납 부하도록 하는 사상 초유의 방안도 구 체화하고 있다.

LA법원 "커피에 암 경고문 부착" 판결…볶을 때 화학물질 탓 로스앤젤레스 법원 판사가 재판에서 커피 회사들에게 앞으로 엄중한 암발 생 경고문을 부착하라고 판결했다. 커 피를 볶는 과정에서 화학물질이 발생 하기 때문이라는 것이다. 캘리포니아 고등법원의 엘리후 베를 리 판사는 이날 판결문에서 스타벅스 를 비롯한 여러 커피회사들은 그 동안 로스팅 과정에서 발생하는 화학물질

이 건강을 위협하는 정도가 미미하다 는 것을 입증하는데 실패했다고 밝히 면서 그 같은 판결을 내렸다. 이번 재판은 캘리포니아 주법이 요구 하는 화학 발암물질에 대한 경고문 부 착을 하지 않는 커피 로스팅업체와 배 급업체, 도 소매 커피판매업체에 대해 한 비영리 시민단체가 고소를 제기한 것에 대한 판결이었다.

커피 안에 든 발암물질 중 하나는 접 착제 원료와 같은 아크릴아미드이다. 커피업계는 그 동안 이런 물질이 들어 있더라도 인체에 유해한 수준에 못미 친다며 커피 향을 내기 위해 커피 콩 을 볶는 과정에서 자연발생하는 것이 므로 법규제 대상에서 면제되어야 한 다고 주장해왔다. 하지만 재판부는 “이런 커피를 소비

하는 것은 태아와 유아, 어린이, 성인 등 모두에게 위험이 될 수 있다. 그런 데 피고측의 의학전문가와 병리학자 들의 증언에서는 그런 인과관계를 부 인할만한 의견제시가 없었다”며 패소 판결을 내렸다. 이번 2심의 판결은 상급심에서 뒤집 힐 수도 있지만, 그런 전례는 거의 없 다.


A32

Tuesday, April 03, 2018

www.FindAllNY.com

이민국, 페이스북 활용 불체자 추적 美이민국, 임신부도 구금·추방 불법체류자들의 전화번호·위치정보 등 입수

세계 최대 소셜서비스 업체인 페이스북이 5,000만명에 달하 는 개인정보 유출 의혹으로 파 문이 일고 있는 가운데, 연방이 민국도 불법 체류자 단속을 위 해 페이스북 데이터를 활용한

것으로 드러났다. 탐사보도전문 매체 ‘더 인터 셉트’에 따르면 이민국 뉴욕지 부 수사관들은 뉴멕시코주 지 역 형사들과 공조해 불체자를 추적하던 중 해당 불체자가 페

이스북 계정에 접속했을 때의 로그 기록과 IP주소 등이 담긴 데이터를 페이스북에 요청, 확 보한 것으로 확인됐다. 특히 ICE 수사관들은 페이 스북에 협조를 구해 해당 불체 자의 전화번호를 파악하고, 로 그인했을 때의 위치 정보를 추 적했던 것으로 나타났다. 이번 처럼 소셜미디어를 이용해 불 체자 단속을 실시하고 있는 것 이 드러나기는 매우 이례적인 것이다.

총기 사들이고 이상한 행동? 중국인 유학생 미국서 추방절차 중

미국에서 유학 중인 중국인 학 생이 별다른 위협 행동을 하지 는 않았지만, 반자동소총 2정 을 구매해 친구들을 놀라게 했 다는 이유로 미국에서 추방된

다고 미국 센트럴플로리다대 학 경찰이 밝혔다. 미CNN 방송은 대학 경찰서 장의 말을 인용, 쑨원량(26)군 이 '요주의 학생'이라는 대학 당국자의 신고를 받고 지난 1 월 하순부터 감시를 해왔다며 이같이 보도했다. 비어리 서장은 쑨군이 외모를 변장하는가 하면 행동이 바뀐 다는 정보를 입수하고 주류· 담배·화기 및 폭발물 단속국

과 접촉한 결과, 쑨군이 AR15 형 소총과 실탄을 소지하고 있 다는 사실을 파악했다. 게다가 쑨군은 학교에 출석하 지 않아 이미 비자가 취소된 상 태다. 외국 학생이 유학 비자를 유지하려면 출석 요건을 채워 야 한다. 이에 따라 추방이 불 가피하다. 쑨군은 현재 플로리다주에 있 는 수용시설에 머물고 있으며 추방 시점은 미정이다.

불법 이민자 단속 더 강력해진다

트럼프 행정부 산하의 이민국 이 더욱 단속 고삐를 죄면서 임 신부까지 구금, 추방정책을 적 용, 논란이 확산되고 있다. 연 방 이민국은 불법 이민자 단 속 시 임신부를 풀어주던 규정 을 더는 적용하지 않는다고 밝 혔다. CNN에 따르면 트럼프 행정 부는 불법 이민자 단속에 걸 린 임신부를 구금하지 않고 풀 어주던 규정을 폐기하는 지침 을 29일 자로 미이민국에 보냈

다. 트럼프 행정부는 이미 지난 해 12월 ‘임신 구금자의 식별과 감시’라는 내부 지침을 확정한 바 있다. 트럼프 행정부가 ICE 에 하달한 지침은 이민법 위반 및 추방 대상자로 구금한 임신 부를 다른 구금자와 똑같이 대 우하도록 했다. 다만 임신 3기에 이른 여성은 종전과 같이 구금하지 않도록 했다. 이와 별도로 ICE는 임 신부 이민자를 단속 또는 구금 할 때 필요한 의료서비스를 제

공하고 해당 여성의 기록을 남 겨야 한다. 그동안 이민국은 2016년 제정 된 임신 여성의 구금 예외 규정 을 따라 왔다. 이 규정은 이민 당국이 임신부 이민자를 단속 해도 필수적인 경우에만 구금 해야 한다고 명시해 놓았다. ICE 측은 지난해 12월부터 임 신부 이민자 506명을 단속 또는 구금했다.

중국, 4000억대 뇌물 간부에 사형 2012년 시진핑 집권 후 처음

중국 법원은 탄광 인가 등으 로 4000억원대의 뇌물을 챙긴

지방 도시 부시장에 사형판결 을 내렸다고 관영 신화통신이 보도했다. 2012년 출범한 시진핑 지도부 는 부패척결을 내세워 비리 간 부를 대대적으로 처벌했지만 극형을 선고한 것은 이번이 처 음이다. 통신에 따르면 산시성 인민법 원은 이날 장중성65) 전 뤼량시 부시장에 대해 수뢰죄를 적용 해 사형과 개인재산 전부 몰수

를 언도했다. 중급인민법원은 또한 장중성 이 축재한 재산의 출처가 불분 명하다는 죄목으로 징역 8년형 에 처했다. 아울러 법원은 장중성이 뇌물 로 받은 금품, 출처가 확실하지 않은 재산 등을 추적해 국고에 환수하라고 명령했다. 법원은 장중성의 사법절차가 끝나는 즉시 사형을 집행하도록 했다.


www.FindAllNY.com

2018년 4월 03일 (화)

A33

"송동호 종합로펌이 미투캠페인에 동참합니다" 직장내 성폭력, 회사가 깨어야 합니다!

조민기, 조재현, 오달수, 최일화. 새 로 개봉하는 영화의 출연진이 아닙니 다. ‘미투 (MeToo) 캠페인’을 통해 성 폭력으로 얼룩진 과거가 폭로된 연예 인들입니다. 문화계뿐만이 아닙니다. 검찰, 종교계, 대학가, 정계에서도 미 투 운동이 확산되고 있습니다. 하지 만 이는 빙산의 일각일 뿐입니다. 가 해자로 지목된 사람들의 인지도 때문 에 미디어에서 다루어지는 사건들만 해도 이 정도인데, 일반 회사에서 직 장 내 성폭력으로 고통받고 있는 사 람들의 수는 얼마나 될지 가늠하기조 차 힘듭니다. 지난 칼럼을 통해 우리는 직장 내 성 폭력의 범위와 피해자로서의 대응방 안 등에 대해 알아보았습니다. 직장 내 성폭력의 피해자가 누구일까 생각 하면 당연히 성폭력을 당한 직원이 먼 저 떠오릅니다. 하지만 직장 내 성폭 력으로 피해를 보는 대상은 더 있습니

다. 바로 회사입니다. 만약 가해자가 사장이 아니라면 회사 차원에서는 가 해자도 직원 중 한 명일 뿐입니다. 직 원들 사이에 일어난 일로 인해 소송 까지 당하고, 막대한 피해보상까지 지 급해야 한다면 억울할 수도 있습니다. 하지만 억울해할 일이 아닙니다. 회사 는 직원들이 성차별과 성폭력으로부 터 자유롭게 근무할 수 있는 환경을 제공할 의무와 책임이 있기 때문입니 다. 소 잃고 외양간 고칠 필요가 없습 니다. 미리 대책을 세우고 방비를 해 야 합니다. 따라서 오늘 이 시간에는 직장 내 성폭력을 방지하고 대처하기 위해 회사가 취해야 하는 행동에 대해 알아보겠습니다. 회사로서 직장 내 성폭력에 대비하 기 위해서 가장 먼저 필요한 것은 명 확한 사규 (Employee Handbook) 를 정하는 것입니다. 사규에는 성폭력 과 관련하여 포괄적이면서도 자세한

내용이 명시되어 있어야 합니다. 그중 에서도 꼭 포함돼야 하는 내용은 다음 과 같습니다. 1. 성폭력의 자세한 정 의와 범위. 2. 직장 내 성폭력을 누구 에게 어떻게 보고해야 하는 지. 3. 접 수된 보고가 어떻게 조사될 것인지. 4. 보고된 성폭력이 사실로 밝혀졌을 때 가해자는 어떠한 처벌을 받게 될 것인 지. 사규는 문서화된 자료이고, 추후 불미스러운 일이 생겼을 때 가장 먼 저 증거로 채택될 자료일 만큼 작성 시 신중을 기해야하며 전문 변호사의 조언을 받으시기를 적극적으로 권유 해 드립니다. 사규의 내용만큼 중요한 것은 이를 실천하는 것입니다. 2011년에 있었던 소송이 좋은 예가 되겠습니다. 2011년 일리노이주에 위치한 Aaron’s Rents 라는 회사에 근무하던 한 여직원이 자 신의 매니저로부터 성추행을 당했습 니다. 여직원은 당연히 회사에 수차례 보고했지만, 회사의 대처는 미흡했습 니다. 적극적인 조사나 처벌이 이루어 지지 않았습니다. 회사의 미흡한 대처 때문에 매니저의 성추행 수위는 심해 지고 횟수는 증가했습니다. 더 이상

참을 수 없었던 여직원은 연방법원에 소송을 제기했고, 법원은 회사에 미흡 한 대처를 문제 삼아 9천5백만 달러라 는 어마어마한 금액의 손해배상 판결 을 내렸습니다. 이처럼 사규의 정확한 확립과 실천이 중요합니다. 직장 내 성폭력을 방지하기 위해 사 규만큼이나 중요한 것은 직원들에게 성폭력 관련 교육을 제공하는 것입니 다. 교육은 인사과 담당자가 진행할 수도 있고 외부의 전문가를 초빙할 수 도 있고 동영상으로도 진행될 수 있습 니다. 이 교육과정을 통해 사규에 명 시된 직장 내 성폭력에 대한 내용을 더욱 상세하게 설명하는 시간이 필요 합니다. 직원들뿐만 아니라 회사의 임 원들과 매니저들에게도 별도의 교육 을 제공하는 것이 바람직합니다. 직 장 내 성폭력이 보고되었을 때 어떻게 대처해야 하는지, 또 어떻게 대처하면 안되는 지등에 대해 예를 들어가며 자 세히 설명하는 것이 중요합니다. 실제 로 몇몇 주에서는 이러한 교육을 의무 화하고 있습니다. 캘리포니아주에서 는 직원 수가 50명이 넘는 회사는 격 년마다 임원들에게 2시간 이상씩 직

장내 성폭력 예방 교육을 의무적으로 제공해야 합니다. 뉴욕시에서도 최근 직원이 15인 이상인 회사에서는 성폭 력 방지 교육을 의무화해야 한다는 조 례안을 상정했습니다. 이처럼 회사가 앞장서서 직장 내 성 폭력을 예방하고 방지할 방법은 많이 있습니다. 직장 내 성폭력은 어제오 늘의 문제가 아니지만, 이제는 바뀌 어야 합니다. 더 이상 간과하거나 묵 과할 문제가 아닙니다. 그러나 이 문 제는 누구 한 명이 바뀐다고 해결될 문제가 아닙니다. 사회 전체가 변해야 합니다. 이 변화에 송동호 종합로펌이 앞장서겠습니다. 회사의 올바른 의식 개선을 도와 직장 내 성폭력을 예방하 여 불필요한 피해자가 나오지 않도록 노력하겠습니다. 칼럼 내용에 대한 추가 문의사항이 있으시거나, 독자분들께서 알고 싶으 신 법률이 있으면 주저마시고 mail@ songlawfirm.com 으로 문의해주세 요. 다음에 쓸 칼럼에 반영하겠습니 다.


A34

Tuesday, April 03, 2018

www.FindAllNY.com

여소방관 3명 사망 운전자 구속 "운전하면서 라디오 조작…소방차 못봐"

충남 아산시 둔포면 43번 국도 변에서 소방차 추돌로 여성 소 방관 등 3명이 숨진 것과 관련

해 60대 화물차 운전자가 구속 됐다. 경찰에 따르면 A씨는 충남 아 산시 둔포면 43번 국도에서 자 신이 몰던 25t 화물차로 소방펌 프차와 충돌, 여성 소방관과 소 방관 임용 예정 여성 교육생 2 명이 숨졌다. 이들은 “개가 줄에 묶여 도로 에 있다”는 신고를 받고 출동해 현장에서 차량을 정차한 뒤 작

업준비 중 트럭이 추돌해 참변 을 당했다. A씨는 경찰 조사에서 “운전하 면서 라디오 조작 중 소방차를 확인하지 못했다”고 진술한 것 으로 알려졌다. 정부는 순직 소방관과 김신형 소방교(28)에게 일계급 특진 및 훈장을, 또 임용을 앞둔 김은영 씨(29)·문새미(23) 교육생에 대해 훈장을 추서했다.

"잘 모르는데…길 좀 알려줄래?" 여고생·여대생 차로 유인 성폭행 여고생과 여대생에게 길을 묻 는 척 접근한 뒤 유인해 성폭행 한 혐의로 재판에 넘겨진 40대 에게 항소심 재판부가 징역 10 년을 선고했다. 대구고법은 구속 기소된 A씨 (48)의 항소심에서 원심과 같이 징역 10년을 선고했다. 재판부는 “이전에도 성폭력 범죄로 수차례 실형을 선고받 아 복역한 A씨가 형 집행을 종 료한 후 누범 기간 중에 위치추

적전자장치를 부착한 상태에 서 또 성폭력범죄를 저질러 엄 중한 처벌이 불가피하다”고 덧 붙였다. A씨는 경북의 한 도시에서 길 가던 여대생 B양(당시 19세)에 게 “길 가르쳐달라”며 접근, 조 수석에 태워 겁을 준 뒤 몸을 만 지는 등 성추행했다. 그는 같은날 저녁 여고생인 C 양(당시 18세)을 발견하고 같은 수법으로 접근해 집 근처에서

C양의 신체를 강제로 만졌다. C양에게 1만원을 쥐어준 그는 “아무한테도 말하지 마라. 너는 성매매를 한 것”이라고 협박, 다시 만날 것을 요구했다. 다음날 C양을 만나 성추행한 그는 사흘째 되던 날 겁을 먹고 반항하지 못하는 그녀를 모텔 로 끌고가 성폭행했다. A씨의 범행은 B양과 C양에게 피해사실을 들은 부모의 신고 로 드러났다.

아내살해, 동거녀 강간 살해범, 무기징역 아내살해, 동거녀 강간 살해범, 무기징역

아내를 살해한 혐의로 무기징역을 살다가 가석 방된 뒤 동거녀를 감금·성폭행해 실형을 살았 던 50대 남성이 또 다시 동거녀를 살해한 혐의 로 기소돼 항소심에서 무기징역을 선고받았다.

서울고등법원은 살인 혐의로 재판에 넘겨진 A 씨(57)에게 원심과 같이 무기징역을 선고하고 30 년간 위치추적 전자장치 부착을 명령했다고 밝 혔다. . A씨는 지난해 인천 남동구 구월동의 한 빌라에 서 생활비 문제와 B씨의 외도를 의심해 다투다 가 동거녀 B씨(50)를 흉기로 살해한 자수했다. A씨는 이미 30년전 아내를 살해한 혐의로 무 기징역을 선고받고 복역 중 10년전 가석방됐다. 이후 동거 중이던 여성을 협박·감금하고 강간 한 혐의로 징역 5년을 선고받았고, 4년전 출소 했다.

"돈 되는 사업은 협박해 뺏어라" 강원도 춘천 장악한 조폭 무더기 검거 강원 춘천지역 4개 토착 폭력 세력이 합쳐져 결 성된 이른바 '통합춘천식구파' 두목과 조직원들 이 경찰에 무더기로 검거됐다. 이들은 지난 6년 여간 춘천 일대에서 유흥업소·보도방·사채업 등 각종 이권 사업을 독점하며, 다른 조직폭력 배들과 대치하는 등 폭력을 휘두른 혐의를 받고 있다. 경기북부지방경찰청은 통합춘천식구파 두목 A(48)씨와 고문 B(48)씨 등 12명을 구속하고 조 직원 53명을 불구속 입건했다. 춘천식구파는 2011년, 계속된 경찰 수사로 세력 이 약해진 군소 폭력조직 4개가 뭉치면서 결성됐 다. 두목으로 추대된 A(48)씨는 빠르게 각종 이

권 사업을 독점하기 시작했다. 이들은 2011년 장 례식장 조화 납품사업 수익이 많다는 것을 알고 조직원을 동원해 기존 사업자들을 협박해 춘천 과 홍천 일대 조화 납품 사업을 강탈했다. 또 보도방 영업에 손을 뻗쳤다. 조직원들은 노 래방에서 도우미를 불러 술을 마시고, 불법 영업 으로 112에 신고해 영업을 의도적으로 방해해 독 점해갔다. 춘천식구파는 회칼과 손도끼를 휘두르며 위력 을 과시했다. 탈퇴 조직원을 야산에 묻었고, 술 집에서 말대꾸를 하는 손님이 있으면 회칼로 내 려치며 집단폭행했다. 선배 조직원의 명령을 어 긴 조직원 6명은 새끼손가락을 자르기도 했다.


www.FindAllNY.com

2018년 4월 03일 (화)

A35


A36

Tuesday, April 03, 2018

법률·변호사 안내

【Law·Attorney Directory】

TU 'MVTIJOH /:

www.FindAllNY.com

'등에 총격 7발'…美경찰에 대규모 시위 새크라멘토 경찰, 스마트폰 든 흑인 사살

비무장 상태에서 경찰의 총에 맞아 희생된 흑인 청년이 등 뒤에서 총격을 당한 것으로 나타나 미 주리주 퍼거슨 사태 이후 또 다시 ‘경찰의 공권력 살인’에 대한 비판 여론이 들끓고 있다. 캘리포니아주 새크라멘토의 주택가에서 흑인 청년 스테폰 클락(사진)이 경찰에 오인 사살된 가운데, 그에 대한 부검 결과 그가 모두 8발의 총을 맞았으며 이중 7발이 등 쪽에서 발견됐다. LA타임스 등에 따르면 유가족의 요청에 따라 부검이 별도로 실시됐고, 부검을 맡은 오말루 박 사는 “등에만 7차례 총상을 입었다고 결론짓는

것이 타당하다”고 말했다. 이번 부검 결과는 사건 당일 클락이 경찰을 향 해 나아가고 있었다는 당국의 설명과 정면으로 대치된다. 경찰은 당시 출동한 경찰관 두 명이 각 각 10차례 발포했다고 밝혔다. 경찰은 클락이 총을 쏘려 해 발포했다고 설명 했으나, 클락의 손에서 발견된 것은 아이폰이었 다. 당시 클락은 조부모의 집 뒤뜰에 머물고 있 었다. 클락의 가족은 정부를 상대로 소송을 제기 할 전망이다.

30대 아시안 부모에 칼 휘둘러 30대 아시안 부모에 칼 휘둘러 캘리포니아주에서 30대 아시안 남성이 부모에 칼을 휘둘러 모친은 현장에서 즉사하고 부친은 중상을 입은 패륜 범죄 사건이 발생했다. 오렌지카운티 셰리프국에 따르면 아시안계 의 홍 펭이 피로 물든 칼을 들고 하이웨이 인근에 서 배회하다 주민들의 신고로 출동한 경찰에 체 포됐다.

셰리프국에 따르면 경관들이 현장에 도착했을 때 펭의 부모인 두 명의 피해자가 칼에 찔린 채 쓰러져 있었으며 용의자는 현장에서 도주를 시 도한 것으로 보인다. 용의자의 모친인 웨이 핑 신(59)는 현장에서 사 망했고, 부친은 중태라고 셰리프국은 밝혔다.


www.FindAllNY.com

2018년 4월 03일 (화)

회계사

A37

ACCOUNTANT 회계업무 |재정업무 | 회계사

시중에 풀린 돈 108조 '사상 최대'…5만원권 압도 한국의 화폐발행잔액 107.8조원…11% 증가…5만원권이 주도 지난해 시중에 풀린 현금이 108조원 에 육박하며 사상 최대치를 기록했다. 한국은행 발표에 따르면 지난해말 기준 화폐발행잔액은 107조7735억원 으로 전년보다 10.8% 증가했다. 연간 기준 사상 최대 규모이자 100조원대를 넘어선 것도 이번이 처음이다.

화폐발행잔액은 한은이 발행한 화폐 중 환수되지 않고 시중에 남아있는 은 행권과 주화 등 현금 규모를 나타낸다. 현금 증가세는 5만원권이 압도적으로 이끌었다. 5만원권의 발행잔액은 86조5779억원 으로 전체 발행잔액의 80.3%를 차지

했다. 전년대비로도 14.3% 증가했다. 만원권의 발행잔액이 15조8606억원 으로 전년보다 2.4% 줄어든 것과는 대 조적인 모습을 보였다. 5만원권의 환수율은 57.8%로 집계됐 다. 5만원권 10장이 나가면 4장은 돌아 오지 않는다는 얘기다.

한국의 소상공인 연소득 2510만원…직장인의 63% 중소기업 연구소 보고서, 소상공인 영업이익 5년간 384만원 줄어 소상공인이 한 해 동안 벌어들인 소 득이 2510만원으로 임금근로자 평균 소득 3948만원 대비 63% 수준에 불과 한 것으로 나타났다. 소상공인 연 소득 은 5년 전보다 384만원 감소하면서 수 익성이 더 나빠졌다는 분석이다.

중소기업연구원은 '영세성 극복을 위 한 소상공인 혁신성 제고방안' 보고서 를 통해 2015년 기준 소상공인의 실질 소득이라고 볼 수 있는 영업이익은 월 평균 209만원으로 같은 해 임금근로자 평균 소득인 329만원 대비 63% 수준으

로 나타났다고 밝혔다. 소상공인의 2015년 영업이익을 2010 년과 비교했을 때 월 32만원, 연간 384 만원 감소했다. 도·소매업, 제조업, 숙박·음식점업 등 소상공인 비중이 큰 업종을 중심으로 수익성이 크게 낮

아졌다. 소상공인은 수익성뿐 아니라 규모 면 에서도 성장이 이뤄지지 않은 것으로 조사됐다. 지난해 기준 종업원 없이 홀 로 사업체를 운영하는 자영업자는 413 만7000명으로 11만1000명이 많아졌다.

환율, 1050원대로 급락…3년 6개월 만에 최저치 기록 미국달러 대비 원화 환율이 1050원대 로 하락하면서 3년 6개월 만에 최저치 를 기록했다(원화 강세). 미 달러가 약 세를 보이는 가운데 한반도 지정학적 리스크가 완화되면서 원화가 큰 폭의 강세를 보인 영향이다.

3년 6개월 만에 최저치다. 이날 원· 달러 환율은 2.5원 내린 1061.0원에 출 발해 장중 하락폭이 커지며 1060원 아 래로 떨어졌다. 글로벌 금융시장에서는 위험 자산에 대한 투자 심리가 개선되면서 위험 자

4U'MVTIJOH/:

산 선호가 이어지고 있다. 달러는 약세 를 보이고 있고 원화를 비롯한 아시아 통화는 강세다. 이런 상황에서 지난 주 말 평양을 방문한 한국 가수들이 공연 을 펼치는 등 한반도 긴장 관계가 완화 되는 분위기가 이어지자 원화 가치는

더 크게 뛰어올랐다. 원·달러 환율이 하락세지만 외환 당 국의 적극적인 개입이 이뤄지기 어려 울 것이라는 분석도 원화 강세를 부추 긴 요인이었다.


A38

Tuesday, April 03, 2018

www.FindAllNY.com

한국의 판사들은 부자들…검사들도 부루조아 부유층 대부분 기본재산 수십억~수백억…자산상위 10위 모두 법관

법원·검찰을 통틀어 법조계 재산 상위 10명은 판사 등 법관 이고, 이중 5명은 재산이 100억

대이상이었고, 법관만 추려봤 을 때, 상위 20명의 재산총액 합 계는 총 1627억원에 달했다. 법

조계에서 가장 재산이 많은 것 으로 신고된 B 부장판사의 경 우, 신고재산 187억3000만원 중

본인 재산은 6억2000만원(3%) 이었고, 나머지 181억원 재산은 부인과 자녀 두 사람 소유였다. 부인 재산은 88억7000만원으로 신고됐고, 나머지 92억원은 자 녀 명의로 되어있었다. 특히 아 들, 딸의 경우 서울 강남 부동 산, 증여금 등을 각각 나눠 가진 것으로 신고됐다. 배우자가 보유한 재산이 신고 재산의 10%에도 못 미치는 법 관은 셋이다. C 부장판사의 경 우 신고재산의 79%가 본인 명 의로 배우자 몫은 자녀들보다 적었다. 자녀들의 경우, 부장판 사의 어머니 즉 할머니로부터

증여받은 몫이 포함됐다. 배우자들의 재산보유 형태는 각양각색이었다. 대법원 법원 행정처에 근무하는 D고위 법 관 배우자는 30억원 안팎 재산 의 절반을 서울·수도권 일대 부동산에, 나머지 절반을 비상 장주식으로 보유했다. 10억원 이 넘는 액수를 ‘비상장주’에 투자하는 것은 일반인들은 접 근하기 어려운 투자방식이다. 이 법관의 경우, 배우자 재산 이 전체 신고재산의 60%를 차 지했다. 운동을 남달리 즐기는 것으로 보이는 법관 부부도 있다. 한 법

원장의 경우 본인과 배우자가 보유한 경기·경북 일대 골프 장 회원권 총 5개, 부부가 각각 회원권을 보유한 5성급 호텔 헬 스장, 배우자 명의 콘도 등 ‘회 원권’ 관련 재산만 5억원에 달 했다. 법원·검찰을 통틀어 법조계 재산 상위 10명은 100억원대 자 산가 5명을 포함해 모두 법관이 고, 법무·검찰 공직자 중 자산 이 가장 많은 윤석열 서울중앙 지검장도 전체 순위에서는 11 위에 그쳤다.


www.FindAllNY.com

2018년 4월 03일 (화)

A39


A40

Tuesday, April 03, 2018

www.FindAllNY.com

월 400만원 소득자 인터넷이용 96% 문 대통령 지지율, 3주 연속 70% 100만원 미만은 49%…스마트폰은 90% 소유 리얼미터 조사…20대서 가장 높은 지지율 한달 400만원 이상 소득 가구의 인터넷 이용률 은 95.7%에 달하는 반면 100만원 미만 가구는 절 반에 못미치는 것으로 나타났다. 인터넷 이용에 ‘부익부빈익빈’ 현상이 두드러지고 있는 것이다. 만 3세 이상 인구(5017만명) 중 1개월 내 1회 이 상 인터넷을 사용한 사람은 90.3%의 이용 경험 을 보였다. 60대 이상 고령자들도 대부분 인터넷 을 사용하고 있다. 스마트폰은 만 6세 이상 인구의 10명 중 9명이 갖고 있는 것으로 나타났다. 20대부터 50대까지 로 한정하면 97%로 매우 높은 수준이었다. 70세 이상(30.6%)과 6~19세(92.8%)의 스마트폰 보유 율은 전년 대비 10.5% 상승했다. 스마트폰 대중화로 인터넷 접속 방법은 유선 보다는 무선 접속이 주를 이뤘다. 3G 또는 롱텀 에볼루션(LTE)을 이용한 무선인터넷 사용은

99.3%였으며 이 가운데 94.1%는 스마트폰을 이 용한 것이었다.

문재인 대통령의 지지율이 지난주 대비 0.4% 상승한 것으로 나타났다. 여론조사 전문기관 리얼미터가 전국 19세 이 상 유권자 2502명을 대상으로 실시한 통계에 따 르면 대통령의 취임 47주차 국정수행 지지율은 69.5%를 기록하면서 3주 연속 70%에 근접했다. ‘국정수행을 잘못하고 있다’는 부정평가는 25.6%였다. 특히 문 대통령의 지지율은 지난 2개월 동안 약 9% 상승했다. 암호화폐, 남북 단일팀 등 각종 논란이 확대됐 던 지난 1월 4주차에 60.8%를 기록하며 취임 후 최저치를 경신했지만 이후 평창동계올림픽에 대 한 관심이 높았던 2월 3주차에는 60%대 중반으 로 올라섰고 남북·북미 정상회담 등의 안보· 외교 성과가 가시화됐던 3월 1주차 이후부터는

70%선에 가까운 강세가 이어지고 있다. 20대에 선 78.0%의 지지율을 기록했다.


www.FindAllNY.com

여성·건강

2018년 4월 03일 (화)

A41

WOMEN·HEALTH 여성| 건강| 패션 | 메이크업| 뷰티 | 요리 | 생활

조리에 빼놓을 수 없는 설탕 섭취, 당신의 건강 괜찮으신가요

지난해 국제보건기구가 설탕 세 도 입을 권고한 만큼 설탕은 우리 머릿속 에 유해성 식품이라 인식되어 있다.하 지만 우리의 생각과 달리 설탕이 과거 에도 나쁜 식품은 아녔다. 설탕은 과

거 '사당'이라 불릴 만큼 보약과도 같 은 존재였다. 다만 과거와 현재, 설탕 의 인식이 달라진 데에는 제조법의 차 이 때문에 설탕에 영양가가 없어지면 서 생겨났다.

피곤할 때나 스트레스를 받으면 단 음식을 찾는 사람들이 많다. 당 충천 을 위해 단 음식을 찾는 행위는 당연한 본능이다. 우리 몸속에는 스트레스를 받게 되면 코티솔이라는 호르몬이 분

비되고 이 코티솔은 에너지원인 포도 당의 정상적인 흐름을 방해해 단 음식 을 먹고 싶게 만든다. 이때 단 음식을 먹게 되면 뇌 안의 쾌락 중추가 자극 되어 신경전달물질인 세로토닌 호르 몬이 분비한다. 이런 증상으로 우리는 정신적 만족감을 느끼게 된다. 하지만 단 음식이 주는 쾌락은 일시적이라 단 음식을 계속 섭취하면 좋지 않은 몸의 상태를 만들 수 있다. 스트레스 해소를 위해 자주 단 음식 을 찾으면, 설탕이 뇌의 중독 중추를 자극하여 더 많은 양의 설탕을 섭취하 게 한다. 이런 상태 때문에 우리는 처 음 우리가 섭취했던 양에 비해 더 많 은 양의 설탕을 섭취해야 뇌를 만족하 게 할 수 있다. 설탕은 우리 몸에 빠르게 흡수고 그 만큼 빠르게 분해된다. 하지만 당을 빨리 떨어지게 하여 허기가 지게 한 다. 이는 배고픔을 만들고 음식을 자 주 찾게 하여 비만으로 이어져 당뇨병

과 심혈관계 질환 발병을 높게 만든 다. 또한 설탕을 많이 섭취하게 되면 암 발병률이 높아진다.암세포는 정상 세포보다 포도당을 7배 이상 빨리 섭 취하기 때문이다. 그렇기 때문에 당 섭취를 위해 설탕 을 먹어야 한다면 그만큼 건강하게 먹 을 수 있게 주의 해야 한다. 실생활에 설탕 먹는 시간을 검사해 될 수 있는 대로 인슐린이 분비되는 3~4시에 섭 취할 수 있도록 하면 좋다. 또한 당 섭취를 위해 설탕을 대신할 수 있는 음식을 알아보는 것도 좋은 방 법이다. 예를 들어 자일로스는 자작나 무나 옥수숫대 등에서 추출하는 성분 이다. 자일로스는 설탕의 60% 수준으 로 단맛을 내는 감미료이고 이는 설탕 이 몸에 흡수되는 것을 줄여준다. 또 한, 설탕과 자일로스를 10대 1의 비율 로 섭취할 시 설탕의 흡수를 평소보다 약 40% 줄여준다.


A42

Tuesday, April 03, 2018

많은 사람들은 행복하려면 물질적 부가 있어야 한다 생각한다. 하지만 우리가 생각하는 만큼 돈, 집, 자동차 같은 물직적 부는 우리의 삶을 편하게 만들어줘도 행복함을 주지는 않는다. 모든건 얻 으려 하면 멀어지듯 행복도 우리 삶의 만족과 마음의 평화를 실행하고부터 찾아온다. 마음이 안정되지 않는 삶은 어떤 것들을 채워놓는다 할 지라도 그 마음이 체워지지 않는다. 안정된 삶 을 살아가려면 우리가 실천해야하는 삶의 자세 는 무엇이 있는지 알아보자. 어릴 때부터 성장배경을 통해 불안과 걱정을 하 게되는 환경에 자라왔을 수 있다. 이런 환경은 걱 정을 생활하 하는 습관을 키워, 자신이 혹시 걱정 을 습관화하는 감정소비를 하는 건 아닌지 알아 볼 필요가 있다. 이런 생활을 고치기 위해 운동 이나 미술 등 취미생활을 늘리는 건 치료법 중 하나이다. 걱정이 너무 많다면 자존감을 키우려는 노력을 해보자. 걱정은 자기 자신의 신뢰나 믿음이 약하

www.FindAllNY.com

기 때문에 나올수도 있다. 걱정이 많아지면 또 한 자기 자신에 대한 자신감과 자존감도 다시 낮 아진다. 자기 자신을 조금 더 믿고 걱정을 최소 화 해보자. 걱정은 생활을 나아지게 하지 않는다. 만성적으 로 걱정을 하는 사람들은 상황 개선을 위해 불안 해 하지만 실제로 걱정은 상활 개선을 하지 않는 다는 걸 인지 하는 것이 좋다. 걱정에 의존적이지 말자. 걱정은 마약과 같다. 큰 효과는 없다는 걸 알지만 불안과 불행의 감 정에 빠져 그 감정을 끊어내지 못할 수 있다. 자 신의 걱정이 자신을 옳아매고 있다면 자신이 혹 시 불안이라는 감정에 빠져서 헤어나오지 못하 고 있지 않는지 알아보자. 조그만한 것에도 만족하고 감사 해보자. 내가 먹는 맛있는 음식, 내 옆에 있어주는 사람들을 의심하지 말고 현재의 감정과 소소한 일상에 잠 심되어 보자.


www.FindAllNY.com

2018년 4월 03일 (화)

건강한 치아로 삶의 질을 높이자

우리는 기본적으로 친구를 만날 때도 비즈니스 를 할 때도 식생활을 통해 사람과 소통한다. 식 생활은 우리 삶의 부분에서 생각보다 큰 부분을 차지한다. 우리가 또한 우리가 어떤 음식을 먹느 냐는 우리 삶의 질을 높여주기도 한다. 이렇게 중요한 식생활만큼 우리는 치아건강도 중요하게 생각해야 한다. 치아는 단지 하얀 이를 관리하기 위해서가 아닌 우리가 어떤 것을 먹을 수 있느냐 에 대한 기본적은 삶을 생활케 한다. 이러한 기본 적인 생활을 위해 치아에 좋은 음식을 알아보자. 양파 양파는 성인병 예방에만 좋은 음식이 아닌 충 치 예방에도 큰 효과가 있다. 양파에는 섬유질 이 많이 들어있어 플라크 제거에 효과적이고 양 파의 항박테리아 성분은 입안의 세균증식을 예 방한다. 아몬드 아몬드와 대부분의 견과류에는 비타민, 칼슘이 풍부하게 들어가 있어 치아 건강에 좋다. 또한, 견과류는 치아 치조골을 튼튼하게 만들어 꾸준

하게 견과류를 섭취하면 치아건강에 도움을 준 다. 녹차 녹차와 같은 앞차는 폴리페놀 성분이 함유되어 충치나 잇몸 질환을 예방하는데 큰 효과가 있다. 치즈 치즈나 우유는 불필요한 산 성분을 낮춰준다. 또한, 치즈에 들어있는 칼슘, 비타민 성분 또한 치아 건강에 도움이 된다. 건포도 건포도에 들어있는 천연 당분은 입속 박테리아 가 고착되는 것을 막아준다. 또한, 충치를 형성하 는 플라크를 없애주기도 한다. 사과 사과의 질감은 잇몸을 강하게 만들어 준다. 사 과는 또한 수분이 풍부하게 들어가 있어 입안에 침을 많이 생성해준다. 침이 많이 생성될 때 입 속의 세균 증식을 막아줘 세균 수를 감소시켜주 는데 좋다.

A43


A44

Tuesday, April 03, 2018

www.FindAllNY.com


www.FindAllNY.com

"우아함, 관능미 다 갖춘 여배우" 매혹적인 자태 뽐내는 김현주 화보 코스모폴리탄에서 뷰티 브랜 드 랑콤과 강렬하고 매혹적인 배우 김현주의 모습을 담아낸 화보를 공개했다. 이번 화보는 김현주와 랑콤이 함께한 두 번 째 화보로, 화사하고 깨끗한 피부에 선명하고 또렷한 눈을 강조한 후 선명하고 반짝이는 레드 립 컬러를 이용해 김현주 만의 럭셔리하고 섹시한 이미 지를 모두 완성했다. 김현주의 강렬하고 관능적인 분위기를 완성한 제품은 랑콤 의 '압솔뤼 에나멜 라커'로 랑 콤 압솔뤼 라인에서 처음 선보 이는 립 라커 제품이다. 틴트 의 롱 래스팅 효과에 글로스의 촉촉함을 더해 가볍게 밀착되 면서도 선명한 컬러와 광택이 오래 유지되는 것이 특징이다. 김현주가 화보에서 사용한 컬러는 강렬한 레드 오렌지 컬 러인 '#수지515', 맑은 레드 컬 러의 '#134', 혈색을 밝혀주는 코랄 컬러인 '#315'다. 김현주의 매혹적인 모습은 코스모폴리탄 4월호를 통해 만나볼 수 있다.

2018년 4월 03일 (화)

A45


A46

Tuesday, April 03, 2018

www.FindAllNY.com


www.FindAllNY.com

2018년 4월 03일 (화)

A47


A48

Tuesday, April 03, 2018

www.FindAllNY.com

권오현 삼성전자 회장 243억…총수 제치고 '연봉왕' 롯데 신동빈 회장 재벌총수 연봉 1위…총 152억원 받아

전문경영인 권오현 삼성전자 회장이 연봉 243억원으로 재벌 총수 일가를 제치고 2017년 ‘연봉왕’에 올랐다. 주요 그룹 총수 일가 중에서 지난해 가장 많은 연봉을 받은 사람은 신동빈 롯데그룹 회장(사진)인 것으로 집계됐 다. 신 회장은 7개 회사에서 작년에 총 152억원을 받았다. 서경배 아모레퍼시픽그룹 회장은 보 수로 총 109억원을 받아 2위를 기록했 다. 이어 정몽구 현대자동차 그룹 회 장이 총 80억900만원을 받아 3위를, 이

재용 삼성전자 부회장은 8억7100만원 에 그쳤다. 허창수 GS그룹 회장은 총 73억300만 원, 구본무 LG그룹 회장은 63억3000 만원을 받았다. 손경식 CJ그룹 회장은 2016년에 CJ제일제당에서 82억1000만 원을 받았으나 작년에는 44억3300만원 으로 대폭 줄었다. 2016년 탈세·횡령 혐의로 1심 유죄 를 선고받고도 구속은 면한 조석래 전 효성그룹 회장은 2016년 46억에 이어 지난해도 15억원의 보수를 받았다.

딸기농장 창업 여찬혁씨 "6월까지 수확…첫해 매출 5천만원" 10년을 넘는 회사 생활을 접고 농업 인으로 전직한 경기도 화성시의 ‘행복 딸기’농장. 여찬혁(42.사진)씨는 체험 학습을 온 아이들에게 어떻게 딸기를 키우고 수확하는지를 설명해주고 있 었다. “귀농·귀촌이 대세라고 하는데 그 는 귀농도 귀향도 아닌 ‘창업농’이었 다. 우연찮게 2016년 서울 SETEC에 서 열린 농업박람회에 구경 갔다가 딸 기 농사가 사업으로서 비전이 있다고 판단했고, 가족과 상의 끝에 실행에 옮

겼다.” 작년 12월부터 올해 6월까지 딸기를 수확할 예정인데, 예상 매출은 5000만 원, 순이익은 3000만원 정도다. 아직 딸기를 키워 아이들 셋과 아내를 포함 한 5명이 쓰기에는 부족하지만 여름철 상추 등을 키워 팔고, 현재 300평 정도 인 재배 규모를 500~600평으로 늘리면 생활비는 물론 저축도 가능하다. “로컬푸드를 통해 출하도 하고 소비 자와 직거래도 한다. 체험학습을 통한 벌이도 쏠쏠하다. 한 사람당 1만원씩

받는데 오늘만해도 10가족 이상이 아 이들을 데리고 체험하러 온다고 했다. 500평 조금 안되는 토지를 구입하는 데 1억3000만원을 들였고, 딸기 재배 하우스를 짓는데 1억1000만원이 들었 다. 땅은 없어지는게 아니니 제외하면 1억1000만원을 투자한 셈이다. 이 중 에 500만원은 부과세 환급을 통해 돌 려받았고, 5000만원은 정부보조를 받 았다.


www.FindAllNY.com

2018년 4월 03일 (화)

A49


A50

Tuesday, April 03, 2018

www.FindAllNY.com


www.FindAllNY.com

2018년 4월 03일 (화)

신세계 정용진 "서울옆 하남에 1조 온라인센터 구축" 미국 서부에 식재료 조리해먹는 PK마켓 진출…아시안마켓 공략 "1조원을 들여 아마존을 능가하는 세 상에 없던 온라인 전문 센터를 선보일 계획입니다." 정용진 신세계그룹 부회장은 낙찰받 은 하남 부지에 최첨단 온라인센터를 만들겠다고 밝혔다. 그는 “단순한 물류센터가 아닌 신세

계 온라인의 심장부가 될 것”이라며 “ 온라인 사업을 위해 투자받은 1조원의 대부분을 투입해 아파트 30층 높이의 대형 건축물로 지을 예정”이라고 설명 했다. 신세계그룹은 통합 온라인쇼핑몰 내 실 강화를 위해 해외로부터 1조원의

경영 2세, 휠라코리아 윤근창 사장은 누구? 휠라코리아가 윤윤수(73) 회장의 장 남 윤근창(43·사진) 부사장이 사장 으로 승진하며 2세 경영의 닻을 올렸 다. 윤근창 휠라코리아 신임 사장은 휠

라코리아가 글로벌 본사를 인수한 2007년 자회사인 휠라USA에 입사, 뉴욕에서 사업개발 및 라이선싱과 소 싱 업무 등을 담당하며 현장 경험을 쌓 았다. 2015년 7월 한국으로 적을 옮겨

전략기획본부장을 시작으로 풋웨어 본부를 총괄(본부장)했고 2017년 7월 부터는 경영관리본부장 및 CFO를 겸 임했다. 윤 신임사장은 2016년 본부장 시절

패션 2세 CEO의 경영성적? 캐리스노트 사업본부장을 맡 으며 브랜드 이미지를 젊게 만 드는 데는 성공하기도 했지만 중국 사업 등은 실패하며 비 싼 경영 수업료를 치르게 된

셈이다. 온라인 매출이 증가하 는 유통 변화에 대응이 느렸던 점도 실적 악화의 원인으로 보 인다. 이번에 모든 부실을 털어버리

고 앞으로 현금을 확보하고 새 유통모델을 만들겠다는 게 최 대표 구상이다. "예전과 같은 공격적 인수합병(M&A)은 없 을 것"이라며 "브랜드 가치 제

투자를 이끌어내는 데 성공했다. 이 자금을 투입해 온라인센터를 선보일 장소는 하남이다. 정 부회장은 이날 미국 등 해외 진출 에 관한 구체적인 진행상황도 공개했 다. 그는 “그로서란트(마트에서 구입 한 식재료를 바로 조리해 먹는 것) 마

휠라코리아가 창립 이래 처음으로 단 행한 브랜드 리뉴얼의 실질적 전략수 립과 실행을 주도했으며 스포츠 브랜 드의 핵심인 신발 부문을 중심으로 ‘ 비즈니스 혁신 모델’을 적용해 합리 적 가격 정책, 헤리티지 강화 제품 전 략 등으로 휠라 브랜드의 부활을 이끌 었다.

고를 위한 마케팅과 온오프라 인 유통 채널 다각화 등으로 성 장 모멘텀을 구축할 계획"이라 고 전했다. 사진: 최병오 패션그룹형지 회장 (좌), 최혜원 형지지I&C 대표(우)

A51

켓인 ‘PK마켓’으로 미국 서부지역에 진출할 계획”이라며 “한식뿐 아니라 미국 백인층을 비롯한 현지인들이 좋 아할만한 아시안 식품을 선보일 것”이 라고 했다. 진출 시기와 형태에 관해선 “내년 5 월까지로 진출 시기를 못 박고 현지 홀 푸드마켓(미국 유기농 식료품 체인) 인근 부지를 알아보고 있다”며 “운영 방식에 관해선 미국 현지 업체를 인수 하는 방안도 고려 중”이라고 밝혔다.


발행인 이명석

33-70 Prince St. #601, Flushing, NY 11354

T. 718-359-0700 / 718-353-3805

F. 718-353-2881

E. findallny@gmail.com 2018년 4월 3일 (화) TUE.

패션 2세 CEO의 경영성적? 윤근창 대표의 '휠라' 이익 17배 최혜원 대표의 '형지', 78억 적자

패션업계 대표직을 물려받은 경영 자 2명의 성과가 극명하게 엇갈렸 다. 윤윤수 휠라코리아 회장(사진) 의 장남 윤근창 부사장(사진)은 '깜 짝 실적'을 이끌어낸 반면 최병오 패 션그룹형지 회장의 장녀 최혜원 형 지I&C 대표는 영업적자라는 성적 표를 받아 들었다. 금융감독원 전자공시시스템에 따 르면 휠라코리아의 지난해 매출 액은 2조5302억원으로 전년보다 161.6% 늘었다. 같은 기간 영업이익 도 2179억원으로 17배나 증가했다. 지난해 4분기 연결 매출액은 6144 억원으로 전년 동기보다 48.4% 늘 었고 영업이익은 519억원으로 흑자 전환했다. 이 같은 실적 개선은 한국내 휠라 의 성공적인 리브랜딩 효과, 아쿠쉬 네트의 온기 반영 및 실적 호조, 전

년 동기 일회성 손실 제거 등 때문으 로 분석된다. 특히 브랜드 리뉴얼 효과가 컸다. 운동화 코트디럭스가 1020세대에서 크게 인기를 끄는 등 대상 연령대가 기존 40~50대에서 10~20대로 대폭 낮춰졌다. 업계에서 30세 이상 타깃 연령대를 낮춰 성공한 것은 매우 이 례적인 사례로 꼽힌다. 성공의 주역은 최근 대표로 선임된 윤근창 부사장이다. 2007년 미국 휠 라에 입사해 경영수업을 받고 2015 년 휠라코리아로 들어온 그는 입 사 후 판매 경로를 기존 소매점 위 주에서 슈즈멀티숍 등으로 넓혔다. 주력상품인 코트디럭스의 가격은 6 만9000원으로 책정해 가성비를 앞 세웠다. 휠라코리아 관계자는 "윤 부사장 은 전략기획실장과 최고재무책임자

(CFO)까지 겸임하며 협업을 주도 하고 중장기적으로 좋은 제품을 합 리적 가격에 내놓을 수 있는 비즈니 스 모델 시스템을 구축하고 있다"고 전했다. 반면 형지그룹의 지주사격인 형지 I&C는 지난해 매출액이 1145억원으 로 10.3% 줄었고 영업손실은 78억원 으로 적자 전환했다. 부진한 실적의 주된 이유는 중국 사업 철수다. 부실 원단 재고는 모두 폐기하며 비용을 일시에 인식했다. 지난해 말 기준 지분 13.43%를 보유 한 관계사 형지엘리트의 손실 반영 도 실적에 영향을 미쳤다. 6월 결산 법인인 형지엘리트의 지난해 하반 기 영업손실은 12억원, 당기순손실 은 26억원이었다. 아버지 최병오 회장을 이어받은 최 혜원 대표는 2008년 형지에 입사해 [A51면에 계속]

주간 기독신문입니다. 구독신청으로 후원해주세요.

뉴욕/뉴저지에서 발행하는

Tel. 347) 538-1587 Email. KidokNewsNY@gmail.com

4.3.18(TUE) 동부벼룩시장  
4.3.18(TUE) 동부벼룩시장  
Advertisement