Page 1

주 2회 화/토 www.FindAllUSA.com ●

발행인 이명석

33-70 Prince St. #601, Flushing, NY 11354

T. 718-359-0700 / 718-353-3805

F. 718-353-2881

E. findallny@gmail.com 2018년 2월 10일 (토) SAT.

뉴욕 성희롱, 경호처 회식서 발생 맨해튼 코리아타운 한인식당서 회식 청와대, 국방부 파견자 등 9명 징계 현지 인턴 여성에 신체적 접촉 시도

주간 기독신문입니다. 구독신청으로 후원해주세요.

뉴욕/뉴저지에서 발행하는

Tel. 347) 538-1587 Email. KidokNewsNY@gmail.com

작년 9월 유엔 참석차 문재인 대통 령이 뉴욕을 방문했을 당시 국방부 직원이 현진 한인 인턴여성의 성희 롱 사건으로 관련자 9명이 청와대에 서 징계를 받은 것으로 확인됐다.

청와대는 9일 이례적으로 “지난해 문재인 대통령의 뉴욕 방문 당시 소 속 직원의 현지 여성인턴을 성희롱 한 사건과 관련 “가해자의 경호실 상 사 4인을 지휘 책임을 물어 징계했

TU 'MVTIJOH /:

고, 만류하지 못한 책임을 물어 동석 자 4인을 징계해 가해자를 제외한 경 호실 직원 총 8명을 징계한 사실이 있다”고 인정했다. 문제의 국방부 직원은 당시 청와대 [A6면에 계속]


A2

Saturday, February 10, 2018

www.FindAllNY.com


www.FindAllNY.com

2018년 2월 10일 (토)

A3


A4

Saturday, February 10, 2018

www.FindAllNY.com


www.FindAllNY.com

2018년 2월 10일 (토)

A5


A6

Saturday, February 10, 2018

www.FindAllNY.com

현금 아닌 정부혜택 받았어도 영주권 안준다 영주권, 비자신청자 공적혜택 받았는지 행정명령 마련 메디케이드·아동건강보험 등 현금아닌 혜택도 거절사유

앞으로 현금 보조는 물론 푸드스탬 프나 메디케어 혜택을 받는 이민자들 은 영주권 취득이 어려워질 것으로 보 인다. 로이터통신에 따르면 연방국토안보 부는 이민 심사관들에게 영주권 또는 비이민비자 신청자가 미국정부의 공 적인 혜택을 받았는지에 대한 전력을 조사하도록 하는 새로운 행정명령 초

안을 마련했다. 영주권이나 비이민비자를 신청한 이 민자들이 미국 납세자들에게 부담이 되는 지를 들여다보겠다는 취지다. 현행 이민법의 ‘공적부조’ 조항에 따 르면 외국인들이 정부의 공공혜택을 이용하게 되면 생활보호자로 간주돼 미국 입국이나 비자 및 영주권 취득 등 이민 자격을 박탈당하고, 심지어 추방

될 수 있도록 규정해놓고 있다. 영주 권을 취득한 지 5년이 안된 이민자도 이 규정에 해당된다. 그동안 정부의 공공혜택은 연방정부 의 생계보조금(SSI)과 빈곤층 현금지 원, 주정부의 일반보조금 등 현금 보조 를 받았을 경우에만 해당됐다. 그러나 이번 행정명령에 따르면 앞 으로는 ▲저소득층 의료보장제도인 메디케이드와 ▲아동건강보험프로그 램 ▲ 푸드스탬프 ▲자녀의 취학 전 교 육과정 등록 ▲저소득층아파트 지원( 섹션8) ▲산모 및 신생아 영양보조 프 로그램(WIC) ▲저소득층 난방비 지 원 ▲오바마케어 지원금 등 비현금 지 원을 받았을 경우에도 영주권과 비이 민비자 신청을 거절할 수 있도록 하고 있다. 로이터은 2016년 한해에만 38만3,000 명의 영주권 신청자가 이같은 경우에 해당됐다고 밝혔다.

뉴욕 성희롱, 경호처 회식서 발생 경호처로 파견된 ‘국방부 직할부대 소속 군인’으로 알려졌다. 한편 지휘책임을 물어 징계를 받은 상사 4명 중에는 회식 자리에 동석하 지 않은 직원도 있는 것으로 알려졌 다. 청와대 관계자는 징계수준에 대 해 ”가해자가 아니라서 중징계는 아 니었다”라고 말했다 청와대 관계자는 또 LA의 한인신 문인 ‘선데이저널’이 청와대 직원의 여자 인턴 성희롱 사건과 관련, 당시 회식에 참석했던 청와대 직원 10여 명을 징계했다고 보도한 데 대해 ” 사실과 다르다”라며 이렇게 말했다. 앞서 ‘선데이저널’은 보도에서 문 대통령이 뉴욕 방문을 마치고 떠난 작년 9월21일 밤 맨해튼 32가 코리아 타운의 한 식당에서 청와대 경호처 직원 10여명과 인턴 5~6명 등 약 20 명이 회식을 하던 도중 경호처에 파 견된 국방부 소속 공무원이 여성 인 턴에게 성희롱으로 느낄 수 있는 진

한 농담을 건넸고 가벼운 신체접촉 을 시도했었다고 보도했다. 이에 피 해자는 즉각 항의한 뒤 인턴을 담당 하는 외교부 직원에게 이 사실을 알 렸고, 이는 외교부 의전장까지 직보 됐다. 한편 조선일보는 이미 ‘작년 9월 文대통령 방미 때…파견 공무원이 여자인턴 성희롱…청와대, 쉬쉬 하 며 직위해제로 매듭’이라는 제목의 기사로 이 사실을 보도했다. 청와대 관계자는 송영무 국방부 장 관에게 보고했는 지의 여부에 대해 “ 국방부 소속 직할부대 군인이라 징 계 권한이 부대장에게 있고, 부대에 서 징계절차 후 국방부에 어떻게 보 고했는지는 별도의 문제”라고 덧붙 였다. 한편 청와대는 피해자가 사건 공개 를 원치 않아서 더이상 이 문제를 거 론하지 않은 것으로 전해졌다.


www.FindAllNY.com

2018년 2월 10일 (토)

"가족이민 축소, 아시안 이민자 타깃" 블룸버그 통신, "사회공헌 무시한 정책" 지적

트럼프 행정부가 추진하고 있는 가족 연쇄이민 폐지는 아시안 이민자들을 타깃으로 한 것이라 고블룸버그 통신이 보도했다. 블룸버그 통신는 ‘가족 연쇄이민 폐지는 아시 안계의 이민 축소를 겨냥한 것’이란 제목을 통 해 가족연쇄 이민 폐지가 성사되면 아시아 출신 국가들의 이민이 직격탄을 맞게 될 것이라고 강 조했다. 블룸버그 통신에 따르면 지난 1960년대까지 100만명에 불과했던 아시안 이민자는 2016년 기 준으로 2,100만명까지 이민이 급증하면서 전체 이민자의 7%를 차지했다. 하지만 앞으로 가족이

민 부문이 축소되면 아시안 이민자 증가세는 현 저히 줄어들 수 밖에 없다는 것이다. 중남미 국가들과는 달리 아시안들은 또 육로로 밀입국을 할 수 없고, 대부분 가족이민과 취업이 민 등 합법적인 방법으로 미국에 들어왔기 때문 에 합법적인 입국 경로가 차단될 경우 미국에 오 기가 거의 불가능해진다는 것이다. 불룸버그는 “아시안 이민자들은 높은 언어장 벽 등에도 불구하고 경제적, 사회적으로 큰 성공 을 이룬 그룹”이라며 “트럼프 대통령이 주장하 는 것처럼 미국인들의 일자리를 뺏는 것도 아니 다”라고 지적했다.

A7


A8

Saturday, February 10, 2018

www.FindAllNY.com


www.FindAllNY.com

2018년 2월 10일 (토)

78세 펠로시 '8시간 6분 끝장연설' 하원 최장기록…10㎝구두 신고…이민자 위한 여전사

78세의 낸시 펠로시 미국 민주 당 원내대표가 7일 오전 10시 '1 분 자유 발언'을 위해 하원 연단 에 오른 후 드리머(Dreamer· 불법 이민자 부모와 함께 미국

에 정착한 불법 체류 청년) 180 만명을 추방하려는 트럼프 대 통령에 맞서자고 호소하기 위 해서였다. 펠로시가 하원 의원 들의 박수와 함께 연단을 내려

왔을 때, 시계는 오후 6시 10분 을 가리키고 있었다. 8시간이 넘는 '마라톤 연설'이었다. 워싱턴포스트 등 미 언론들은 이날 '8시간 6분' 기록은 이전 기록이던 1909년 챔프 클라크 당시 민주당 원내대표의 5시간 15분을 3시간이나 뛰어넘은 것 이라고 보도했다. 나이 80을 바라보는 펠로시는 아이보리 정장에 10㎝ 넘는 검 은 하이힐을 신고서도 8시간 내 내 꼿꼿한 자세로 목소리를 높 였다. 그녀는 "애국심에 불타는 드리머들이 매일 설 자리를 잃 고, '아메리칸 드림'에서 멀어 져가고 있다"며 "우리에게는 그들을 위해 행동해야 할 도덕 적 책무가 있다"고 했다. 중간 중간 물로 입을 축일 뿐 앉지도, 화장실을 가지도 않았다.

A9


A10

Saturday, February 10, 2018

www.FindAllNY.com


www.FindAllNY.com

2018년 2월 10일 (토)

A11


A12

Saturday, February 10, 2018

www.FindAllNY.com


www.FindAllNY.com

2018년 2월 10일 (토)

A13

몸의 어떤 아픈 곳이라도 산소와 영양분만 충분히 공급되면 어떠한 통증이나 질병도 나을 수 있습니다.“옛 어른들은 이를 기혈의 순행이라 부릅니다.”

치매예방

'크레딧카드 빚 많은도시' 뉴욕 3위 1인당 3.5개 카드, 빚 7천불 넘어…워싱턴 DC 1위 뉴욕이 크레딧 카드 발급 건수는 가장 높고 크 레딧카드의 빚(밸런스)는 미국내 도시 중 3번째 로 높은 것으로 조사됐다. 크레딧카드 닷컴에 따르면 미국의 25개 대도시 중 뉴욕시는 1인당 평균 3.46개의 카드를 발급 받아 가장 많았으며, 다음으로는 샌프란시스코 (3.3개)와 시카고(3.23개), 필라델피아 (3.22개), 보스턴(3.21개) 순이다. 뉴욕은 또 크레딧 카드 빚이 7,145달러로서 대 도시 중 3위를 나타냈다. 1위는 워싱턴 DC(7,442 달러), 2위는 댈러스(7,171달러)였다.

크레딧 카드 밸런스를 모두 갚는데 걸리는 시 간은 뉴욕이 17개월로 세인트 루이스, 포틀랜드, 디트로이트와 같은 수준을 나타내며 25개 대도 시 중 13위를 차지했다.

나이가 들면 여러 가지 질병이 따르 차를 하는 경우 또는 걷다가도 옆의 게 마련입니다. 가장 흔한 것이 고혈 자동차 번호판을 보고 숫자를 더하 압과 당뇨입니다. 무릎 등 각종 통증 는 연습을 합니다. 만약 ABC479라 도 경험하신 분들에게는 상당히 고 면 4+7+9=20입니다. 제 자식들이 어 통스러운 것입니다. 질병 없이 또는 렸을 때 자동차를 타고 가면서 다른 통증 없이 오래 살다가 죽었으면 바 자동차 번호의 숫자를 보고 7, 8, 6, 람직하지만 이게 마음 먹은 대로 되 9 하면 두 아들이 시합하듯 빨리 대 는 것도 아닙니다. 답을 하게 했는데 지금 제가 하고 있 아마도 제일 고통스러운 증상이 아 습니다. ༙᮹ᨕਅᦥ⥩Ŕᯕ௝ࠥᔑᗭ᪡ᩢ᧲ᇥอ∊ᇥ⯩Ŗɪࡹ໕ᨕਁ⦽☖᷾ᯕӹ 마 중풍과 치매가 아닌가 싶습니다. 두 번째로 손발 운동을 많이 하는 것 ḩᄲࠥӹᮥᙹᯩ᜖‫ⲳ݅ܩ‬᩼ᨕෙॅᮡᯕෝʑ⩩᮹ᙽ⧪ᯕ௝ᇡ෦‫Ⲵ݅ܩ‬ 치매는 거동은 가능하다 해도 인지 입니다. 제가 수지침 원리와 경락의 능력이 없으니 식구중의 한 사람이 이론을 이용하여 만들어 매일 하루 옆에 꼭 붙어있어야 합니다. 만약 집 에 두 번씩 실천합니다. 세 번째로 제 안의 생계를 담당하던 분이 간호를 개인의 의견으로는 골수의 부족으로 해야 하는 상황이 오면 막막할 수 밖 치매가 오는 것으로 생각합니다. 에 없습니다. 뇌는 한의학에서 “골수의 바다”라 큰 제약회사에서 치매를 예방할 수 고 부릅니다. 나이가 들면 골수의 생 있는 약을 개발하다가 포기를 했다 산이 줄게 되는데 신장(콩팥)의 기능 는 기사를 본 적 있습니다. 전에도 좋 이 떨어지게 되면 골수를 생산하지 은 콜레스테롤을 만들어 주는 약을 못하게 됩니다. 개발하다가 포기한 적도 있습니다. 그러므로 신장의 기능을 향상 시킬 아무리 의학이 발달해도 분명히 한 수 있는 방법을 강구해야 하는데 개 계는 있을 수 밖에 없습니다. 최선의 인적으로 이 방법이 제일 효과가 큽 방법은 미리 치매를 예방하는 것이 니다. 신장은 골수를 만들고 골수는 지만 이것도 쉬운 일이 아닙니다. 호르몬과 피를 만드는 것이 기본 원 저는 저 자신의 방법으로 예방하려 리가 됩니다. 이를 위해 꾸준히 한약 고 합니다. 자동차를 운전하다가 정 을 복용합니다.

ᅙ⦽᮹ᬱᨱᕽ۵ᱢᮡᙹ᮹⋉ᮥ _} ᔍᬊ⦹۵äᯕ޵⬉ŝaᳬ݅Łၠ᜖‫݅ܩ‬ ⋉ᮥ‫״‬۵ᷪ᜽⬉ŝaӹ┡Ԋ‫ⲳ݅ܩ‬ᅕ᧞ŝ⊹ഭ⦽᧞ᮥᱶ⪶⦽ḥ݉ᮝಽ᳑ᱽⲴ


A14

Saturday, February 10, 2018

www.FindAllNY.com

"현역 군인은 불체자로 추방 안당해" 매티스 美국방장관, 닐슨 국토안보장관과 확인 트럼프 대통령이 가장 신뢰하 고 있다는 짐 매티스 미 국방장 관은 청년 불법이민자 문제에 대한 논란에 대해 "복무중이거 나 입대를 대기 중인 이민자들 은 추방당하는 일은 없을 것"이 라고 확언했다. 매티스 장관은 버락 오바마 전 대통령이 만든 불법체류 청 년 추방유예(DACA) 프로그 램을 트럼프 행정부가 폐지하 는 것과 관련해 "커스텐 닐슨 국토안보부장관과 '확인 전화' 를 통해 이같은 사실을 확인했 다"고 밝혔다. 매티스 장관은 "닐슨이 모든 현역 군인과 명예 제대자들은

중범죄를 저지르거나 판사의 특별 추방명령이 내려진 사람 을 제외하고는 안전할 것이라 는 말을 했다"고 전했다. 작년 9월 트럼프 대통령은 어 렸을 때 미국에 이민을 와서 불 법 체류자 신분으로 살고 있는

청년들 (일명 '드리머')을 구제 하는 DACA의 폐지를 선언했 지만 미국 관리들은 미군 복무 자에 대한 DACA 폐지와 추방 적용여부에 대해 명확한 답을 하지 않았다.


www.FindAllNY.com

2018년 2월 10일 (토)

14만명 제치고…최초로 다후증후군 아기가 대회 우승 미국 올해의 아기 선발대회에서 91년 역사상 최초로 다운증후군 아기가 선 발됐다. 올해의 아기 선발대회를 주최하는 미국 유명 이유식 업체 커버는 "루카 스는 빛나고 장난스러운 미소로 14만 명이 넘는 후보들 중에서 선정됐다"고 밝혔다. 이어 "'모든 아기가 거버의 아

기'라는 오랜 전통을 잘 보여주는 아기 를 매년 선정한다"며 "올해는 루카스 가 가장 적합하다"고 덧붙였다. CNN뉴스 등은 다운증후군 갖고 태 어난 아기 루카스 워렌이 올해 ‘거버 베이비’ 선발대회에서 우승했다면서 ‘ 역사를 만들었다’고 보도했다. 조지아주 달튼에 살고 있는 루카스

는 올해 18개월이다. 루카스는 우승 상금으로 5만달러를 받으며, 한해 동 안 거버의 소셜 플랫폼과 제품 광고에 등장한다. ‘거버 베이비’는 미국의 유명 유아식 제품 회사로 지난 1927년부터 올해의 아기를 선정, 광고나 캠페인 등에 모델 로 기용한다. 이번 대회에는 무려 14만

명의 아기가 응모했다. 루카스의 부모는 "수많은 경쟁자들 사이에서 루카스가 뽑혔을 때 정말 놀 랐다"면서 "루카스 같은 아이들도 세 상을 바꿀 잠재력이 있다는 것을 보여 주고 싶다"고 말했다.

A15


A16

Saturday, February 10, 2018

www.FindAllNY.com

동생 유해담아 평창에 온 뉴욕출신 선수 지난해 갑작스레 남동생을 잃 은 미국의 한 스키선수가 이번 평창 동계올림픽에서 특별한 추모에 나섰다. 미국 NBC 방송은 스키 에어 리얼 종목의 세계 챔피언 미국 의 존 릴리스(23)가 평창올림 픽 개막식에 막내동생의 유해 가 담긴 유리 펜던트를 목에 걸 고 참석했다고 밝혔다. 큰형인 존을 포함해 크리스 (19), 마이키(17) 삼형제는 모 두 스키 유망주였다. 특히 고향

인 뉴욕 주 로체스터에서는 우 애가 돈독한 형제로 유명했다. 그러나 존이 지난해 세계선수 권대회에서 금메달을 따면서 올림픽 출전 자격을 얻었으나 동생들은 아쉽게도 평창행 꿈 을 이루지 못했다. 존은 “올림픽에서 함께 경쟁 하는 것은 우리 형제 모두의 꿈 이었다"면서 "막내 마이키를 이렇게라도 데려와서 올림픽 을 경험시켜 주고 싶었다. 이는 내가 할 수 있는 최선의 방법이

었다"며 눈시울을 붉혔다. 동생 마이키는 지난해 10월 갑자기 자택에서 숨을 거뒀다.


www.FindAllNY.com

2018년 2월 10일 (토)

A17


A18

Saturday, February 10, 2018

www.FindAllNY.com

게시판 무료 미국 시민권 강의 (100% 합격) 10년 노하우 강사가 무료 강의 합니다. 플러싱: 갈릴리교회 33-37 146th St. Flushing, NY 11354 뉴저지: 뉴저지영어훈련원 705 Grand Ave. #208, Ridgefield, NJ 07657 시민권신청 및 영주권 갱신 업무와 시민 권 인터뷰시 한국어 통역도 해드립니다. usnjpp17@gmail.com ☎201-518-6829 ●

뉴욕 에스더 꽃꽂이회 강좌 뉴욕 에스더 꽃꽂이회가 오는 24일 오 후 4시 퀸즈 성결교회(42-19 Bell Blvd., Bayside)에서 정기 성전꽃꽂이 강좌를 개최한다. 매달 넷째쭈 토요일 4시에 개최되는 이 강좌는 총 4명의 강사가 진행하며 매달 1 회, 총 12회 강좌가 열린다. 참가자들에게는 꽃꽂이 전시회 참여 기 회도 주어진다. 1년 회원으로 등록시, 에스더회 꽃꽂이 책과 가위, 에이프런이 선물로 제공 1년 회비 $100. 재료비 매 수업 $30 회비는 해외 선교지에 보내진다. 뉴욕 에스더 꽃꽂이회 ☎718-551-1081 ●

-2/10/18------------------------------------------------------------------------------------------------------------------------------------------------------------------------------------------------------------------------------------------------------------------------------------3/10/18--

국가 당뇨예방프로그램(NDPP) 교육 Montefiore Hospital in Bronx가 지원하 고 KCS공공보건부가 진행하는 한인을 위한 '국가당뇨예방프로그램' 26주 과정. 건강한 식생활법, 운동 및 실천계획 달성 등에 관한 교육을 통해 궁극적으로 건강 한 Lifestyle의 변화를 통해 당뇨 및 당뇨 합병증 예방을 위한 프로그램. Montefiore Hospital의 지원으로 전 과정 무료. 참여자에게 다양한 혜택이 주어짐. 출석을 잘하거나 체중이 감량된 경우, 소 정의 인텐시브도 받을 수 있음. ♣ 참가대상: 예비당뇨 또는 당뇨가 걱 정되는 분으로 1. 브롱스에 거주자 혹은 직장이나 사업 체가 브롱스에 있는 분 2. 18세 부터 79세 까지 3. 보험이나 신분 상관없음 4. 예비당뇨 진단을 받은 분 (Prediabetes) --A1C수치가 5.7~6.4 는 예비당뇨임 5. 체질량지수(B.M.I)가 22이상인 분 ♣ 일시: 2018년 3월 20일 화요일 오전 10시~12시 (26주간 계속됨) ♣ 장소: 브롱스 한인밀집지역 (장소는 추후 결정) ♣ 인원수: 선착순 25명 제한 추문영 ☎917-945-7567 Grace Shin ☎510-402-8878 ●

9/19/17---------------------------------------------------------------------------------------------------------------------------------------------------------------------------------------------------------------------------------------------------------------------------------------3/31/18

톱 연주 수강생 모집 유투브에서 "뉴욕 천선생"으로 검색해서 연주, 강의모습 감상할 수 있음. 톱 연주:나무를 써는 톱을 악기로 사용 천리밍 선생님 약력: 수십회 중국, 미국 오케스트라단과 협주, 실내, 야외 공연 다수, 방송 출연. 현재 뉴욕 맨해튼, 퀸즈 초, 중, 고교 학교 출강 중. 개인 교습 및 그룹, 단체 수강생 환영. 많은 제자들이 대학 진학시 악기 연주 특기로 혜택을 받 았음. 톱 연주학교(Musical Saw) (영어/한국어) ☎ 646-982-2761 (중국어) ☎ 917-783-4485 chensawplaying@gmail.com ●

-------------------------------------------------------------------------------------------------------------------------------------------------------------------------------------------------------------------------------------------------------------------------------------------------

꽃꽂이 수강 모집 (NY/NJ) 꽃집창업반 / 플로리스트 화훼장식기능 사반 / 어린이플로리스트반 / 전문웨딩 장식 및 지도반 / 성전 꽃걸이 플로리스 트 과정 꽃꽂이- 초급에서 연구사범까지 실내 조 경마스터과정 / 동양식과 웨스턴 유러피 안까지 이론과 실기를 겸한 개인지도 한국꽃문화 진흥협회 영심꽃예술중앙회 회장 김영심 ☎ 718-506-4352 ●

BULLETIN BOARD 지역 사회 동정 | 사회 보장 서비스 | 건강 보험 | 일반 건강 | 강좌/상담/세미나 / 기독교 관련 동호회 영어 북클럽 매월 모임 두 편의 영어소설를 출간한 작가 최복림 씨가 이끄는 영어 북클럽. 매달 퀸즈 플러 싱에서 열립니다. 시간:첫번째 or 두번째 수요일 오후 6시 장소 : 46-20 Parsons Blvd, Flushing. 그 달의 영어소설을 읽고 한국어로 토론 합니다. ☎917-992-3732 ●

한인 노숙인 무료쉘터 나눔의 집 남·여 신분에 관계없이 재정문제로 인해 노숙할 수밖에 없는 분들은 연락을 주시 면 상담후 의·식·주 도움을 드립니다. 식사 준비 자원봉사 하실분 연락주세요. nanoomhouse@gmail.com ☎718-683-8884 ●

-------------------------------------------------------------------------------------------------------------------------------------------------------------------------------------------------------------------------------------------------------------------------------------------------

송뮤직 스튜디오 기타, 드럼, 실천 속성 전문/기타(일렉, 어쿠스틱,베이스)드럼 다양한 연령층 지 도, 풍부한 경험, 완전 초보자 3개월 속 성지도/고등학교 콘서트 밴드 특별지 도 /교회찬양단 특별지도/60세 이상 시 니어 걱정말고 전화주세요./주 7일 오픈 9am-10pm/플러싱 노던 150St ☎718-679-5002 ☎718-427-3323 ●

12/10/16--------------------------------------------------------------------------------------------------------------------------------------------------------------------------------------------------------------------------------------------------------------------------------------1/09/16

5/20/17------------------------------------------------------------------------------------------------------------------------------------------------------------------------------------------------------------------------------------------------------------------------------------------CE

04/22/14-------------------------NY----------------------------------------------------------------------------------------------------------------------------------------------------------------------------------------------------------------------------------------------------------05/21/13

08/31/12-------------------------------------------------------------------------------------------------------------------------------------------------------------------------------------------------------------------------------------------------------------YS---------------------------O

청일한의원의 한달내 치료 보장 (12번의 침치료와 한달치 한약) 1. 아토 피 2. 여드름 3. 고혈압 (위수치 150이상 은 20% 이상, 150이하는 120 또는 그 이 하로 내립니다) 한달내에 치료가 안 되 면 두번째달은 무료로 치료해 드립니다. 그래도 치료가 안 되면 지불하신 금액을 돌려 드립니다. ☎718-228-1972 ●

5/1/14--------------------------------------------------------------------------------------------------------------------------------------------------------------------------------------------------------------------------------------------------------------------june/3------------------1/15

임플란트 전문 A 플러스 치과 오피스 이전 기념 이벤트 (7/31/16까지) 무료: 엑스레이 포함 검진($60불 상당) $200할인 : 치아 미백 $400 상당 $100할인 : $1000불 예상 치료시 예약 필수 *쿠폰 지참요(신문 광고 참조) ☎718-762-1700(164-10 노던) ●

2018 메디케어/오바마케어 가입신청 건강보험 전문 '조은 Agency'에서 도와 드립니다. <메디케어>65세 이상 1. 신규 가입(53년생) 및 플랜 변경 2.월보험료 $0, 주치의 $0 Copay, 추천 서 불필요 3. 무료 운동 회원권, 침술, 치과, 안경 및 OTC카드 혜택 *현재 보유하신 플랜변경 상담 *처방약 보조(Extra Help) 및 보험료면 제(MSP) 신청 <오바마케어>65세 미만 1. Essential 플랜: 소득에 따라 월보험료 $20이하, $0 Deductible(연중 수시 가입 가능) 2. 메디케이드 및 어린이 건강보험 신청 (ChildHealth Plus) *건강보험 ‘특별가입(SEP)’ 조건에 해 당여부 문의 바랍니다. <사업체 건강보험> 2인 이상 연중 수시 가입/변경 1. $0 Deductible GOLD plan, 주치의 추 천서 불필요 2. Owner만도 가입 가능 *‘보험료 절약’ 문의 바랍니다 162-23 Depot Rd. St #202 Flushing, NY 11358 <조은보험> ☎917-750-5424(C) ☎718-886-5792(O) ●

04/22/14-------------------------NY----------------------------------------------------------------------------------------------------------------------------------------------------------------------------------------------------------------------------------------------------------------

05/07------------------------------------------NYF------------------------------------------------------------------------------------------------------------------------------------------------------------------------------------------------------------------------------------------------o

제일기원 이전공고 유니온에 있던 제일기원이 새로운장소 (151-28 34Ave)로 이전하였습니다. 어린이 바둑, 컴퓨터 바둑반이 있습니다. ☎718-886-5040

명윤희의 행복한 풍선 마을 풍선 이벤트:돌잔치 결혼식 프로포즈 생 일파티 개업식 풍선교육:취미반 비지니스반 (초급,중급,고급) 선교 봉사반 ☎ 201-675-7955

5/20/17---------------------------------------------------------------------------------------------------------------------------------------------------------------------------------------------------------------------------------------------------------------------------------------CE

4/29/17---------------------------------------------------------------------------------------------------------------------------------------------------------------------------------------------------------------------------------------------------------------------------------------5/23/17

무료카페 & 문화교실 오픈 1. 정기적 다민족 공동체모임, 주일 오 전 영어 주일 학교 연령별 모임: 10AM11AM 주일오전 대 예배 (영어 예배): 11:15 AM-12:30 PM -한국어, 중국어, 스페인어 번역을 매주일 제공함 2. 2016 년 하반기 무료 성인 다민족 언어 학습 교 실- 무료 커피와 베이글 제공/ 교재비 별 도 개인 부담 - 수강 기간: 9월 13일 (화)-12월 16일 (금)까지 3개월/수시, 등록 가능 화요일 수업,원어민 영어 초/중급 회화 : 10:30 AM - 2:30 PM (원어민 지도) 기초영어 문법&회화: 10:30 PM -12:00 PM 일 본어 반:기초 회화 1:00-2:00 PM(학생 모집 중 등록 요함) 주소: 45-11 149th St. Flushing, NY ☎ 516-749-1744 (이재숙선교사)

9/24/16--------------------------------------------YS-----------------------------------------------------------------------------------------------------------------------------------------------------------------------------------------------------------------------------------------11/7/17

주님의 신탁 선교회 1. 무숙인 무료 숙식 제공 2. 저소득층 직 업제공 (55세 이상) -연방정부 봉급 받 습니다. 3. 합법적 신분이신 분만 가능 ☎347-803-0375 ●

메디케어 B / 한국여권 5년 매년 1~3월만, 항상 매달 $134 면제신청 재활협회 ☎718-445-3929

평생 공짜 무료 보험, 세금환급 반가운 소식.영주권 없는 서류 미비자나 여권 연장 안되는 분에게도 평생 무료 종 합 병원 카드혜택과 사진있는 신분용 은 행카드, 절호의 기회-65세 이상 반액 지 하철 카드, 영주권 있는 분, 무료 종합 병 원카드는 물론이고 생활보조비 메디케 이드, 푸드 스탬프, 시민권 신청, 시영 아 파트 (영주권 5년, 65세이상 SSI 수혜가 능)136-80 41Ave.2fl. 플러싱 NY 11355 천주교명 요한 김 ☎646-339-6091 자비원 장기근무(후속 밝은마음회장역임) ☎917-554-8446 뉴욕한인상조회 후원 ☎718-762-3515

--------------------------------------------------------------------------------------------------------------------------------------------------------------------------------------------------------------------------------------------------------------------------------------실장님-------

2/25/177---------------------------------------------------------------------------------------------------------------------------------------------------------------------------------------------------------------------------------------------------------------------------------------5/1517

곽명순 치과 틀니전문 치과 (무료 상당환영) 틀니당일 수리 1시간내 에 가능 30년 경력 기공사와 의사 진료 과목: 임플란트, 일반치과, 신경치료, 교 정, 사랑니 발치 142-10B #21 루즈벨트 7번종점3분 ☎ 718-359-2519 ●

05/07-------------------------------------------NYF-----------------------------------------------------------------------------------------------------------------------------------------------------------------------------------------------------------------------------------------------o

---------------------------------------------------------------------------------------------------------------------------------------------------------------------------------------------------------------------------------------------------------------------------------------3/17/18-----

‫޹י‬a

Ⱂᩍ⧪ႊྙᯱၰʑ┡እᯱ዁ෙ᜽ᯝԕ໕⨩≉ा Ⱂ⦽ǎ໕⨩᷾ᗭḡᯱ⦥ʑ᜽⨹ᮝಽ໕⨩≉ा Ⱂ⦽ᩢ⦥ʑ᜽⨹ๅᯝᝅ᜽ Ⱂ₉పǎᨦྕ‫ݚ‬ᯝ⃹ญ *5/ ᖙɩᅕŁ ჩ⪙ᝁℎ Ⱂᗭᖽჩ⪙ᝁℎ እᯱᩑᰆᝁℎ Ⱂᗭ᧲Ʊᮂᝅ᜽ ⰒჭᱱƱᮂᅕ⨹ഭ⧁ᯙჭᱱᱱqᱱ

⦺ᬱ



໕⨩≉ा


www.FindAllNY.com

2018년 2월 10일 (토)

A19


A20

Saturday, February 10, 2018

www.FindAllNY.com

만남의 광장 [늘푸른 산악회] 최신 15인승 밴과 함께

[주찬양 선교회]에서 양로원 및 너싱홈의 노인환자를 위한 찬양 사역에 봉사 하실 분을 찾습니다. 정목사☎917-415-6995 -------------------------------------------------------------------------------------------------------------------------------------------------------------------------------------------------------------------------------------------------------------------------------------------------

즐겁고 기분좋은 등산을 하십시오. 베이사이 드 지역은 픽업해 드립니다. 화요일 오전 9시 노던 한양마켓 주차장에서 출발 (Mr. Kim) ☎ 917-650-3234 9/15/15--------------------------------------------------------------------------------------------------------------------------------------------------------------------------------------------------------------------------------------------------------------------------------------03/14/16

무료카페 & 문화교실 오픈 1. 정기적 다민족 공동체모임, 주일 오 전 영어 주일 학교 연령별 모임: 10AM11AM 주일오전 대예배 (영어 예배): 11:15 AM12:30 PM -한국어, 중국어,스페인어를 매주일 제공함 2. 2016년 하반기 무료 성인 다민족 언어 학습 교실- 무료 커피와 베이글 제공/ 교 재비 별도 개인 부담 수강 기간: 9월 13일 (화)-12월 16일(금) 까지 3개월/수시, 등록 가능 화요일 수업,원어민 영어 초/중급 회화 : 10:30 AM - 2:30 PM (원어민 지도) 기초영어 문법&회화: 10:30 PM -12:00 PM 일본어 반:기초 회화 1:00-2:00 PM(학생 모집 중 등록 요함) 주소: 45-11 149th St. Flushing, NY 이재숙선교사 ☎516-749-1744

[대왕국교敎] YEAR OF 1960년에 NEW돈 현금 현찰을 NEW로 IAM뿐 LOVELY IAM의 MY FACE PHOTO됨 ALLOWED됨뿐으로 646-932-3521 IAM 세계의 LOVELY MY NEW 재미장 의사. TRUE LOVE MY 독립 ISLAND 대왕국 NEW교 敎 NEW FLAG NEW 뱅크은행 集團 MY LOVE BEGINNERS STARTER 12 per person. IAM의 NEW 선박 세계 일주 월드크루즈 BEST MY LOVELY NEW MY 대왕국행 FLAG SHIP ON BOARD 되실 외국인 내국인들을 초대되셨음에 LOVELY IAM뿐과 함께 조지아 텍사스 스페셜 RIDE될 HELPER들도 FAST로 MY 만남 미팅 디스커스팅 미팅됨으로 오 십시오. 하루 숙박 $12 잠주무실분 연락 주십시오. ☎ 646-932-3521 --01/30/18---------------------------------------------------------------------------------------------------------------------------------------------------------------------------------------------------------------------------------------------------------------------------------2/20/18---

꽃꽃이 수강생모집(NY.NJ) 꽃집창업반/ 플로리스트 화훼장식기능사 반/어린이플로리스트반/전문웨딩장식 및 지도반/ 성전 꽃걸이 플로리스트 과정/꽃 꽃이- 초급에서 연구사범까지 실내 조경 마스터과정/ 동양식과 웨스턴 유러피안까 지 이론과 실기를 겸한/개인지도 한국꽃문화 진흥협회 영심꽃예술중앙회 회장 김영심 ☎718-506-4352

TIMES BOARD 산악회 | 동호회 | 구혼 | 심부름센터 | 이혼소속 | 무료강좌 | 홈케어

결혼을 원하는 50대 초반 시민권자 남성 이 사랑과믿음으로 따뜻한마음을 가지신 여자분과의 좋은 만남을 원합니다. ☎201-551-0423

05/07-------------------------------------------NYF----------------------------------------------------------------------------------------------------------------------------------------------------------------------------------------------------------------------------------------------op

-1/13/18----------------------------------------------------------------------------------------------------------------------------------------------------------------------------------------------------------------------------------------------------------------------------------2/6/18-----

50대 중반, 60대 중반의 두 남성이 여친 을 원합니다. 주간에는 문자로 연락 바랍니다. ☎718-308-5001 ---2/10/18----------------------------------------------------------------------------------------------------------------------------------------------------------------------------------------------------------------------------------------------------------------------------------3/10/18--

결혼 상담소 한국인 중국인 남여 누구나 짝을 찾아드립니다. 조선족 환영. 탁월한 매칭 전문 ☎646-691-5846 ☎917-832-4288

면허취득과 동시에 취업 연결. 토탈 면허 / 스킨케어면허 NY주 미용감독 이선주 직 강, 미용연구반(남자컷, 매직 등), 메이크 업, 영구화장, 롱레쉬 저렴한 학비, 페이먼 플랜 대규모 최신시설. <티파니 미용학교> ☎917-406-8897 05/07------------------------------------------------------------------------------------------------------------------------------------------------------------------------------------------------------------------------------------------NY--------------------F----------------------------o

3/11/17---------------------------------------------------------------------------------------------------------------------------------------------------------------------------------------------------------------------------------------------------------------------------------------6/6/17

짝 찾기 대 운동본부 에서 남여 누구나 짝 을 찾아 드립니다. (초혼재혼)결혼 꼭 망설이지 마시고 언제 든지 연락주세요. 카톡ID:Shim2525 Email:energyshim@gmail.com ☎Mr.심:917-922-2525 10/24/17-------------------------------------------------------------------------------------------------------------------------------------------------------------------------------------------------------------------------------------------------------------------------------------11/18/17

합의 이혼 $500 / 파산 $1500 전문 변 호사가 도와 드립니다.(인지대 별도) 35-14 150 Place, Flushing, NY ☎ 718-461-7102

평생 공짜 무료 보험, 세금환급. 반가운 소식.영주권 없는 서류 미비자나 여권 연장 안되는 분에게도 평생 무료 종 합 병원 카드혜택과 사진있는 신분용 은 행카드, 절호의 기회-65세 이상 반액 지 하철 카드, 영주권 있는 분, 무료 종합 병원 카드는 물론이고 생활보조비 메디케이드, 푸드 스탬프, 시민권 신청,노인 아파트 (영 주권 5년, 65세이상 SSI 수혜가능) 천주교명 요한 김 ☎646-339-6091 자비원 장기근무(후속 밝은마음 회장역임) ☎917-554-8446 뉴욕한인상조회 후원 ☎718-762-3515 2/25/177--------------------------------------------------------------------------------------------------------------------------------------------------------------------------------------------------------------------------------------------------------------------------------------6/24/17

[명윤희의 행복한 풍선 마을] 풍선 이벤 트 : 돌잔치 결혼식 프로포즈 / 생일파티 개업식, 풍선 교육 : 취미반 비지니스 반, (초급, 중급, 고급)선교 봉사반 ☎ 201-675-7955

사회복지 혜택 서비스 신청. AM 8:30 ~ PM 3:00까지 노인층 저소득 층을 위한 전반적인 복지혜택 서비스와 무료건강 보험 상담 신청 가정 문제 연구소 ☎ 718-321-2400

08/31/12---------------------------------------------------------------------------------------------------------------------------------------------------------------------------------------------------------------------------------------------YS------------------------------------------OP

03/05--------------------------------------------------------------------------------------------------------------------------------------------------------------------------------------------------------------------------------------------------NYF-----------------------------------------

8/27/16--------------------------------------------------------------------------------------------------------------------------------------------------------------------------------------------------------------------------------------------------------------------------------------2/27/18

04/22/14-------------------------NY----------------------------------------------------------------------------------------------------------------------------------------------------------------------------------------------------------------------------------------------------------- ----

[뉴저지 가곡교실] 매주 화요일 저녁 8시~10시. 발성 및 악보읽는법 개별지도 65 Robinhood Ave Closter, NJ 07624 ☎ 212-567-6919

신개념 속눈썹 교육과 도매판매. ◆뉴욕 네일협회-매주 월요일 10am-12pm 교육 ◆뉴저지 교육(매일교육) 속성만: 10am12pm, 8pm-10pm / 30분에 끝나는 테크 닉 / 취업과 수료증, 출장 교육 가능함 La bella7 ☎201-957-3737

------------------------------------EH----------------------------------------------------------------------------------------------------------------------------------------------------------------------------------------------------------------------------------------------------------

2017 메디케어 보조플랜. 메디케어 환자가 병원 입원시 본인이 부담 해야하는 20%에 대한 대책을 미리 마련 하여 개인비용을 최소화 할 수 있도록 도 와드립니다. 김운경 ☎516-707-0709 ☎201-305-3356 10/11/16--------------------------------------------------------------------------------------------------------------------------------------------------------------------------------------------------------------------------------------------------------------------------------------11/10/16

2018 메디케어/오바마케어 가입신청 건강보험 전문 '조은 Agency'에서 도와 드립니다. <메디케어>65세 이상 1. 신규 가입(53년생) 및 플랜 변경 2.월보험료 $0, 주치의 $0 Copay, 추천 서 불필요 3. 무료 운동 회원권, 침술, 치과, 안경 및 OTC카드 혜택 *현재 보유하신 플랜변경 상담 *처방약 보조(Extra Help) 및 보험료면 제(MSP) 신청 <오바마케어>65세 미만 1. Essential 플랜: 소득에 따라 월보험료 $20이하, $0 Deductible(연중 수시 가입 가능) 2. 메디케이드 및 어린이 건강보험 신청 (ChildHealth Plus) *건강보험 ‘특별가입(SEP)’ 조건에 해 당여부 문의 바랍니다. <사업체 건강보험> 2인 이상 연중 수시 가입/변경 1. $0 Deductible GOLD plan, 주치의 추 천서 불필요 2. Owner만도 가입 가능 *‘보험료 절약’ 문의 바랍니다 162-23 Depot Rd. St #202 Flushing, NY 11358 <조은보험> ☎917-750-5424(C) ☎718-886-5792(O) ●

-------------------------------------------------------------------------------------------------------------------------------------------------------------------------------------------------------------------------------------------------------------------------------------------------

04/22/14-------------------------NY----------------------------------------------------------------------------------------------------------------------------------------------------------------------------------------------------------------------------------------------------------------

강아지 신랑 구함

재활협회 메디케어

MD불체자 운전면허

결혼상담소

짝찾기 대운동본부

한살된 강아지 '페키니즈(Pekingese)' 신랑 구합니다. 같은 종만 가능합니다.

메디케어 B 한국여권 5년 매년 1~3월만, 매달 $139 면제

한국인 중국인 남여 누구나 짝을 찾아드립니다. 조선족 환영 탁월한 매칭 전문

장애인재활협회

정식 발급 시행 15년 이상 경험 신규, 갱신 면허정지 해제 모든 문제해결해 드립니다.

짝 찾기 대 운동본부에서 남여 누 구나 짝을 찾아 드립니다. (초혼재 혼)결혼 꼭 망설이지 마시고 언제 든지 연락주세요. 카톡:Shim2424 Email:energyshim@gmail.com

929-310-8540

301-787-5250

646-259-2526 917-806-8680

646-691-5846 917-832-4288

917-922-2525


www.FindAllNY.com

2018년 2월 10일 (토)

출산 위해 항암치료 포기…암까지 이겨낸 엄마 영화 '타이타닉' 남녀 주인공 배우가 재정 후원 없어지는가 싶었던 암 세포가 머리 로 전이된 영국의 한 20대 엄마가 치료 차 독일로 넘어간 뒤 자기 사연을 알 린 상황에서 영화배우 레오나르도 디 카프리오와 케이트 윈슬렛의 도움 덕 에 수개월 전 마지막 치료를 끝내고 최 근 완치 판정을 받아 잔잔한 감동을 주 고 있다. 놀랍게도 여성은 임신 중 암 진단을 받았는데, 출산을 위해 항암치료를 거 절했다. 영국 데일리메일과 미러 등 외신들 에 따르면 로센데일에 살던 젬마 누탈 (29)은 2013년 어느날, 병원에서 임신 이라는 말과 함께 난소에 암 세포가 생 겨 이를 제거해야 한다는 소식까지 접 했다. 의료진은 젬마에게 낙태를 권했

다. 엄마부터 살아야 한다는 게 이유 다. 하지만 젬마는 거절했다. 영국에 서 가망이 없다고 본 젬마와 그의 엄마 는 더 나은 치료를 받으러 독일로 건너 갔다. 1회에만 7만파운드(약 1억원)가 드는 치료비를 감당하기 어려웠던 모 녀는 온라인 모금운동 페이지에서 자 기들 사연을 알리고 네티즌들의 도움 을 간청했다. 이들이 설정한 목표액은 총 30만파운드(약 4억6000만원)다. 예상치 못한 일이 벌어졌다. 영화배 우 케이트 윈슬렛이 젬마의 사연을 접 하고는 자기와 함께 도움을 주면 어떻 겠냐고 레오나르도 디카프리오 재단 에 연락을 취했다. 이 재단은 배우 레 오나르도 디카프리오가 1998년에 설 립한 재단이며, 환경 보호에 수백만달

러를 기부하는 등 여러 공익 활동에 앞 장서고 있었다. 영화 ‘타이타닉’에서 두 사람이 맡은 배역 이름을 딴 ‘잭(Jack) 그리고 로 즈(Rose)와의 저녁 식사’를 경매에 부쳐 무려 135만달러의 기금을 모았으 며, 이들은 젬마의 가족에게 돈을 전 달했다. 두 사람의 도움으로 지난해 가을, 암 세포를 모두 없앤 젬마는 최근 완전히 병마를 이겨낸 것으로 확인됐다. 데일리메일은 “케이트 윈슬렛과 젬 마는 종종 연락을 주고받는다”며 “이 들은 언젠가 또 만나게 될 것”이라고 전했다.

A21


A22

Saturday, February 10, 2018

www.FindAllNY.com

컴퓨터관련

COMPUTER 컴퓨터 수리 | 컴퓨터 판매 | 네트워크 | 웹사이트 | 컴퓨터 교육 | CCTV | 업그레이드

페이스북, 커뮤니티 리더에게 1000만 달러 페이스북이 커뮤니티 조성을 통한 긍정적인 사회 변화를 이 끌어내기 위해 우수 커뮤니티 리더 105명을 선정해 총 1000만 달러를 지원하는 프로그램을 실시한다. 페이스북은 페이스북과 인스

타그램, 메신저 등 페이스북 패 밀리 앱을 기반으로 의미있는 커뮤니티를 이루고 사회에 필 요한 변화를 이끌어내려는 커 뮤니티 리더들을 대상으로 한 ‘페이스북 커뮤니티 리더십 프 로그램’을 실시한다고 밝혔다.

제니퍼 덜스키 페이스북 그룹 및 커뮤니티 총괄은 “커뮤니티 리더십 프로그램을 통해 사회 구성원들을 연결하고 이끌어 낼 수 있도록 지원해나갈 것” 이라고 말했다.

---------------------------------------------------------------------------------------------------------------------------------------------------------------------------------------------------------------------------------------------------------------------------------------------------------------------------------------------------------------------------------------------------------------------------------------------------------------------------------------

웹사이트 제작(14년간 뉴욕에서) 기업 교회 단체 웹제작. 저렴한 비 용으로 관리까지 ☎ 347-368-6866 --/16/13-------------------3+2---------NY-----------------------------------------------------------------------------------------------------------------------------------------------------------------------------------------------------

사랑방 컴퓨터 교실 컴맹탈출 초급반/중급반/고급반 3개월 12 회 1시간 30분씩 $150로 후원비 만 받습니다. 41-54 149 PL, 플 러싱. 사랑 커뮤니티 센터 제공 ☎ 718-888-9080 ☎ 646-269-2628

"컴퓨터 수리, 판매 합니다." ☎718-353-0911 ----------------------------------------------------------------------------------------------------------------------------------------------------------------------------------------------------------------------------------------GU--

컴퓨터 출장 수리 & 교육 업그레이드 컴퓨터에 관한 모든 문제 해결. 픽업 출장수리 B & B 컴퓨터 ☎ 718-279-2685 --------------------------------------------------------------------------------------------------------------------------------------------------------------------------------------------------------------------------------------------

PCVALLEY 컴퓨터 만족 보장 판매 수리 웹사이트 전 문 모든 컴퓨터 문제 해결 깨진 스 크린 수리 휴대폰까지 , HD초고화질 CCTV 설치 ☎718-762-6000

JC TECH 컴퓨터 수리 윈도우 재설치 40불에 OK / 고장 진단 무조건 무료 플러싱 최저가 수리 / 최저가 완벽 제작 & 싼 중 고 컴퓨터 판매 / 무료 픽업 서비 스 & 당일 수리 10AM-7PM 플러싱 삼원각 옆 ☎ 718-461-2050 C.P. ☎ 914-484-1588 --

---------------------------------------------------------------------------------------------------------------------------------------------------------------------------------------------------------------------------------------2/31/15

컴퓨터 출장 수리 업그레이드 판매. 20년 경력 컴퓨터 노하우/ 출장비 픽업/딜리버리 공짜, 수 리비 $30 전화문의 환영 PM 10 시까지 ☎ 718-406-6056 --------------------------------------------------------------------------------------------------------------------------------------------------------------------------------------------------------------------------------------------


www.FindAllNY.com

2018년 2월 10일 (토)

A23


A24

Saturday, February 10, 2018

www.FindAllNY.com


www.FindAllNY.com

2018년 2월 10일 (토)

A25


A26

Saturday, February 10, 2018

www.FindAllNY.com


발행인 이명석

T. 718-359-0700 / 718-353-3805

F. 718-353-2881

E. findallny@gmail.com

뉴저지 벼룩시장 지국장 박정태 : 201-937-3289 2018년 2월 10일 (토) SAT.

"소식 끊긴 가족 찾아달라" 캐나다 80대 한인노인, 자녀에 편지 이혼 후 어린 딸·아들 놔두고 이민 40년간 살면서 사죄, 재산상속 희망

“소식이 끊긴 한국의 자식들을 꼭 찾아주세요.” 캐나다에서 생의 마지막을 준비하 고 있는 80대 한인노인이 전남 광주 시 동구청의 도움으로 40여년 간 소 식이 끊긴 가족을 찾았다. 동구에 따르면 지난 6일 김성환 동 구청장 앞으로 캐나다 소인이 찍힌 국제우편 한 통이 도착했다.

캐나다 한인 A(83)씨는 40년 가까 이 소식이 끊긴 자식들을 만나고 싶 다며 이들을 찾아달라는 간절한 바 람을 편지에 담아 보냈다. 동구에서 성장기를 보낸 A씨는 육 군 통신장교로 베트남 전쟁에 참전 했다. 1978년 전역한 A씨는 이듬해 아내와 이혼한 뒤 6살 딸과 세 살 배 기 아들의 양육을 맡긴 채 홀로 캐나

다 이민 길에 올랐다. A씨는 “아버지로서 두 자식에게 사 죄를 구하고 유산을 상속해주는 것 이 마지막 소원”이라며 “청장님께서 첨부한 인적사항을 참고로 연락처를 꼭 알아봐 달라”고 부탁했다. 김 구청장은 A씨의 가족을 찾아볼 것을 관련 부서에 지시했고, 수소문 끝에 이날 오후 경기도에 살고 있는 아들(44)과 연락이 닿았다. A씨의 아들은 이날 동구청 직원과 의 전화통화에서 ‘40여 년간 생사를 몰랐던 아버지의 소식을 듣게 돼 감 개무량하다. 광주에 살고 있는 어머 니, 누나와 상의해 아버지를 만날 시 기와 방법을 정하겠다’는 뜻을 전달 했다. A씨의 편지는 이날 전처와 딸 에게 전해졌다. 이에 대해 구청측은 “멀리 떨어져 서로를 그리워만하던 가족들이 만날 수 있는 길이 열려 다행이다”며 “지 역민의 행복이 지역의 행복이라는 마음으로 더욱 세심한 행정을 펼쳐 나가겠다”고 말했다.


B2

Saturday, February 10, 2018

www.FindAllNY.com


www.FindAllNY.com

2018년 2월 10일 (토)

B3


B4

Saturday, February 10, 2018

www.FindAllNY.com


www.FindAllNY.com

2018년 2월 10일 (토)

B5

한반도기, 11년만의 남북 공동 입장에 함성 "기네스북 오른 1218개 드론 동시 비행, 놀라운 광경" 외신들은 한반도기를 앞세워 개회식 장에 공동으로 입장한 남북한 선수들 의 소식을 집중적으로 전하며 평창 겨 울올림픽 개회식이 평화의 메시지를 전하는 데 초점을 뒀다고 보도했다. 뉴욕타임스는 “하나가 된 남북한 대 표 선수들이 평화의 메시지를 전달하 면서 올림픽이 시작됐다”며 이번 올림 픽이 단순한 스포츠 행사 이상임이 개 회식을 통해 드러났다는 분석이다. 뉴 욕타임스는 “한국의 젊은 세대는 통

일에 비교적 덜 호의적이다”라고 덧 붙였다. CNN도 “남과 북 선수들이 함께 입 장하자 우레와 같은 함성이 터졌다”는 헤드라인을 웹사이트 상단에 남북 공 동입장 사진과 함께 게재했다. 외신은 성화 점화자로 나선 ‘피겨 여 왕’ 김연아의 등장도 높게 평가했다. BBC는 “성화 점화를 맡은 김연아는 역사상 가장 훌륭한 한국 선수 중 하 나”라며 “여전히 너무 매력적이다”라

고 전했다. “모든 게 품격 있게 진행 됐다. 맘에 들었다”고 개회식을 높이 평가했다. 1218개 드론으로 만들어진 오륜 모양

도 주목받았다. ABC는 “동시에 비행 하는 드론 수로는 사상 최대로 기네스 기록에 올랐다”고 전했다. BBC는 “굉 장한 광경이었다. 놀랍다”고 했다.

김여정이 이동할 때는 철벽 경호가 따라붙었다. 김여정의 최근접 경호는 북측 요원들이 맡고, 청와대 경호처 요 원들이 좀 떨어진 거리에서 이중의 경 호를 펼쳤다. 사실상 국가 정상 수준

의 경호가 벌어졌고, 김여정 일행 주 변 지역은 휴대전화와 카메라 영상 전 송용 장비 등의 통신이 일시 먹통이 되 기도 했다.

90세 김영남, 부부장 직책 김여정에 '상석' 권유 국가 정상급 경호…김여정 위해 김정은 친위대 직접 나서 공항 VIP접견실에 가장 먼저 들어온 김영남 상임위원장은 멈춰서 문 쪽을 뒤돌아보며 잠시 초조한 모습을 보였 다. 이어 부부장 직책인 김여정이 들 어온 것을 확인하고 나서야 웃으며 방 향을 돌려 소파로 향했다. 착석할 때도 비슷한 모습이 나왔다. 김영남이 김여정에게 상석에 앉으라 고 손짓을 하자 김여정이 환하게 웃 으며 ‘사양’하는 손짓을 했고, 결국 잠 시 승강이 끝에 김영남이 그자리에 앉 았다.

김여정은 시종일관 고개를 살짝 든 도도한 모습이었다. 조 장관을 보며 살짝 눈을 흘기는 장면이 포착되기도 했다. 현송월 삼지연관현악단장이 명품으 로 추정되는 가방을 연달아 선보이며 화려함을 과시한 것과는 대조적이었 다. 모습이 베일에 싸여 있던 김여정은 아버지 김정일의 영결식 때 처음 모습 을 드러낸 이후 오빠 김정은을 수행하 는 장면이 여러 번 목격됐다.

미국 주식보유 가구 52% '2007년 후 최고' 그레이스재단, NJ한인회에 3,000불 전달 미국의 주식시장 상승세가 지속되고 있는 가운 데 미국 가정의 과반수가 주식에 투자하는 것으 로 나타났다. 주식을 보유한 미국인 비율이 52% 를 웃돌며 2007년 이후 최고 수준으로 늘어났다. 퇴직연금에 자동으로 가입하는 직장인들은 물 론 저소득층 가구의 주식 보유가 뚜렷한 증가세 를 보인 점이 주목된다. 이는 노동시장이 호전되면서 직장인 퇴직연금 에 자동으로 가입하거나 저축할 여유가 생긴 사 람들이 늘어났기 때문이라고 풀이했다.

그레이스 체리티재단(대표 김진수)이 뉴저지한인회가 주 최하는 ‘후원의 밤’ 행사를 위 해 써달라고 3,000달러를 후원 했다. 이날 재단의 김진수(왼 쪽에서 두 번째부터) 대표가 뉴저지한인회관을 방문, 박은 림 뉴저지한인회장에게 후원 금을 전달하고 있다. <사진제공=뉴저지한인회>


B6

Saturday, February 10, 2018

www.FindAllNY.com

문대통령, 평창 개막식서 김여정과 악수

문재인 대통령이 9일 열린 2018 평창동계올림 픽 개막식에서 북한 김정은 노동당 위원장의 여 동생 김여정 노동당 중앙위 제1부부장과 처음으 로 만나 악수했다. 문 대통령은 개막식이 열린 평창올림픽스타디 움에서 귀빈석의 외빈들과 인사를 차례로 나누

다가 김여정 쪽으로 다가가 손을 내밀었다. 김여정은 문 대통령을 보자 자리에서 일어나 환 하게 웃으면서 문 대통령이 내민 손을 잡았다. 문 대통령은 이어 김영남 북한 최고인민회의 상 임위원장과 악수를 나눈 뒤, 두 사람의 앞 자리에 부인인 김정숙 여사와 함께 착석했다.

美펜스 부통령, 김영남과 만찬거부…퇴장

펜스 미국 부통령이 9일 올림픽 개회식 직전 평 창 용평리조트에서 열린 리셉션에서 김영남 북 한 최고인민회의 상임위원장과 한 테이블에 앉 는 것을 거부하며 행사를 보이콧했다. 펜스 부통령은 북한 김영남과는 어떤 접촉도 하 지 않겠다는 뜻을 분명히 한 것이다. 펜스 부통령과 아베 총리가 리셉션장에 도착 한 것은 문 대통령이 리셉션 장으로 입장한 직 후다. 이때까지 두 사람은 문 대통령과 기념촬

영 하지 않았다. 펜스 부통령은 헤드테이블에 마련된 자리에 앉 지 않고, 헤드테이블과 다른 테이블에 앉은 정 상들과 일일이 악수한 뒤 리셉션장을 퇴장했다. 펜스 부통령은 북한의 김영남과는 악수를 하지 않았다. 펜스 부통령은 당초 북한 대표단과 동선이 겹 치지 않도록 해달라고 우리 정부에 부탁한 것으 로 알려졌다.

아베, 김영남과 '악수·대화'…매우 이례적 통가 선수, 영하 8도 개막식서 근육 과시

아베 신조 일본총리가 평창 동계올림픽 사전 리셉션 만찬에서 김영남 북한 최고인민회의 상 임위원장과 악수를 하고 대화를 나눴다고 일본 언론들이 보도했다. NHK는 일본 정부 관계자의 말을 인용, “아베 총리는 평창 올림픽 사전 리셉션에서 같은 테이 블에서 만난 김영남 상임위원장과 악수를 하고 짧게 대화를 주고 받았다”며 “아베 총리가 북한

김정은 체제 하에서 북한 간부를 만난 것은 이번 이 처음”이라고 보도했다. 교도통신도 아베 총리와 김 상임위원장의 만남 을 조명하며 “2004년 고이즈미 준이치로 당시 총 리가 북한을 방문한 이후 일본 총리가 북한 노동 당 최고 간부와 접촉한 것은 매우 드문 일”이라 고 보도했다.

평창 올림픽 스타디움에서 개회식에서 통가의 유일한 선수이자 기수인 스키선수 타우파토푸 아가 상의를 벗은 채 근육질 몸매를 과시하며 스 타디움에 입장했다. 관중석에선 함성이 쏟아져 나왔다. 타우파토푸아는 2016년 리우데자네이루 하계 올림픽에서는 태권도 선수로 올림픽에 참가했 고, 이번에 종목을 바꿔 다시 올림픽 무대에 서

게 된 것. 이번 평창동계올림픽 개막식은 체감온도 영하 8도의 추운 날씨 속에서 진행돼, 타우파토푸아 가 옷을 갖춰 입고 입장할 것이라는 예상이 많 았다. 하지만 타우파토푸아는 개막식에서 근육질 몸 매를 그대로 드러낸 의상으로 입장해 관객들의 박수를 받았다.


www.FindAllNY.com

2018년 2월 10일 (토)

건축·부동산

CONSTRUCTION REAL ESTATE

건축| 룸메이트 | 렌트 | 가게매매 | 하우스매매

서울시 입주 분양권이 얼마?

"30평이 최소 12억원은 넘어야"

입주 아파트 2억~4억 웃돈 붙어 올해 서울에 입주하는 아파트 분양권에 평균 2억원의 웃돈(프리미엄)이 붙은 것으로 나타났 다. 강남권에서 분양한 단지일수록 웃돈이 높 아, 프리미엄이 최고 4억원이 넘는 단지도 나오 고 있다. 강남권 단지일수록 분양권에 웃돈이 많이 붙었 다. 서초구 반포동 ‘반포 래미안 아이파크’의 경 우 분양권은 평균 19억원에 거래됐다. 분양가 14 억6000만원을 고려하면 웃돈이 4억4000만원에 달했다. 강남구 일원동 ‘래미안 루체하임’과 반 포동 ‘반포 센트럴 푸르지오 써밋’, 송파구 가락 동 ‘송파 헬리오시티’에도 각각 3억원이 넘는 프 리미엄이 붙었다. 동작구 흑석뉴타운 일대와 성동구 아파트도 웃 돈이 강세였다. ‘흑석뉴타운 아크로리버하임’과

B7

서울시 강동구 집값 상승폭, 강남보다 빨라

'흑석뉴타운 롯데캐슬 에듀포레', 성동구 금호동 1가 ‘e편한세상 금호파크힐스’와 행당동 ‘서울숲 리버뷰자이’도 2억원을 훨씬 웃도는 프리미엄이 붙어 거래됐다. 재건축 규제가 강화돼 갈수록 새 아파트가 줄 어들 것이란 전망이 힘을 얻으면서 쌓였던 미분 양이 소진되면서 웃돈이 붙기 시작했다.

서울 강동구 집값 상승세가 ‘형님’격인 강남3구 집값 상승세를 따돌렸다. 부동산리서치 회사 ‘부 동산114’ 조사에 따르면 2월 첫째주 조사에서 강 동구 아파트 값은 한 주만에 1.91% 올랐다. 서울 25개구 중에서 1위다. 서울 평균 상승률 0.43% 의 4배다. 강동구 고덕동의 아파트 단지 30평대는 최소 12 억원에 매물로 올라오고 있다. 강동구 재건축 아파트 시세는 거의 폭주 수준 이다. 강동구 재건축 시세는 2월 초 조사에서 한 주 사이에 4.2% 올랐다. 올 들어 5주만에 9.57% 올랐다. 10억원 정도 하는 강동구 재건축 아파트 값이 평균적으로 한달여만에 1억원씩은 모두 뛰 었다는 의미다. 강동구 주택 시장이 이처럼 펄펄 끓는 첫번째

이유는 강동구 재건축 아파트 단지들이 ‘재건축 아파트 초과이익 환수제’라는 규제를 피한 점이 다. 강동구 재건축 아파트들은 사업속도가 빨라 이미 관리처분인가 절차를 통과했고, 이미 공사 중인 단지도 적지 않다.

뉴욕시 주민 65%, 렌트 거주

구글, 뉴욕 첼시마켓 25억불 인수

뉴요커 10명중 6.5명이상이 렌트 생활을 하고 있는 것으로 나타났다. 렌트카페닷컴이 최근 발표한 2016년 기준, 전 국 100대 도시 렌트 세입자 및 주택 오너 비율 보고서에 따르면 뉴욕시의 렌트 세입자 비율 은 65.1%로 전국 4위에 올랐다. 이는 10년 전인 2006년과 비교해 4.5% 증가한 수치로 렌트 세입 자 인구는 총 544만1,635명으로 집계됐다. 전국에서 렌트 세입자 비율이 높은 도시는 뉴

구글이 뉴욕의 관광명소 중 하나인 ‘첼시마켓’ 을 인수한다. 구글의 모기업인 알파벳은 25억 달러에 달하는 금액을 지불하고 부동산회사 제임스타운으로부 터 첼시마켓 건물을 매입한다는 계획을 밝혔다. 이는 개별건물 거래로는 뉴욕시에서 두 번 째로 큰 금액이다. 현재 구글의 뉴욕 본부는 첼시 마켓의 건너편 에 있는 건물에 입주해 있다.

저지주 뉴왁과 저지시티로 각각 1,2위를 차지했 다.

ᵝ┾⎵ᦶ⎹ࠥᔢᨦᬊÕྜྷ ๅๅၰ౭✙ᱥྙ ⦺Ǒᳬᮡᄁᯕᔍᯕऽ ญ✡ֆ ə౩ᯨֆ౭✙ྙ᮹⪹ᩢ

⚍ᯱᬊÕྜྷၰb᳦ๅๅᔢ‫⧕ݕ‬ऽพ‫݅ܩ‬ ⥥௝ၙᜅ ᇡ ߑᅕ௝ᱶ




B8

Saturday, February 10, 2018

www.FindAllNY.com

플러싱 룸메

169St 룸메

맨해튼 32St 독방

플러싱 룸메

223가 룸메이트

기차역 룸메

안전하고 조용한 환경 유학생 원합니다. 유틸 포함 1인 1실 700불 2인 1실 400불

플러싱 169St 독방 Q28 버스 앞 LIRR 가구 인터넷 티비 냉장고 전기 포함 $590

맨하탄32가 독방$1200. 4인 쉐어룸 $750. 3개월이상 할인 (주인직접)

플러싱 큰방 / 거실 저렴한 가격

223St 67Ave 깨끗한 큰방 주차편리 가구완비 취사 인터넷 세탁기 학생 및 직장인 여성분 유틸포함 $800

기차역 룸메이트 플러싱 162가 36Ave. 기차역3블럭 여성분 취사가능 직장인및학생 와이파이 취사가능

917-612-1261

917-834-1011

917-742-1200

646-539-9197

646-539-9197

플러싱 144St 33Ave 독방 남자룸메이트 구함 인터넷 침대 가구 취사가능 세탁기 교통편리 $600 ☎718-530-5334

파슨 35Ave 141St 한아름마트 근처 깨끗하고 밝은 아파트 단독 냉장고, 모든 가구완비 유틸포함.금연자및직장인 원함 ☎718-502-5118

2월 말까지 하숙이나 잠깐 계실 분 원합니다. 파킹장 있음. 인터 넷, 침대, 가구 있음 ☎347-654-5564

164St 플러싱 최고 럭셔리하우스 민박 장단기 룸메이트 환영 화장실 딸린 큰방있음, 맨하탄 팬 스테이션 종점까지 20분거리 향수하숙 ☎917-613-1473

LI 미용실 내 룸 렌트합니다. 스킨케어·바디마사지·아이레 쉬·타투 모두 가능. 오래된 미용 실. 고객많음. 플러싱 30분거리 렌트 $500 ☎917-921-1177

-2/10/18------------------------------------------------------------------------------------------------------------------------------------------------------------------------------------------------------------------------------------------3/10/18-

-1/20/18----------------------------------------------------------------------------------------------------------------------------------------------------------------------------------------------------------------------------------------2/13/18---

-12/9/17------------------------------------------------------------------------------------------------------------------------------------------------------------------------------------------------------------------------------------------3/6/18--

-1/20/18-----------------------------------------------------------------------------------------------------------------------------------------------------------------------------------------------------------------------------------------2/13/18--

플러싱 여자 룸메이트 햇빛 잘 듦. 화장실 있는 큰독방 큰침대 TV 책상 식탁 에어컨 냉장고. $700 ☎347-303-1947 ☎347-336-4280

150St 41Ave 먹자골목 근처 남성 룸메이트 구합니다. 인터넷, 취사 가능, 가구, 침대 완 비 교통 샤핑 편리 $400 ☎347-777-0188

뉴저지 홈스테이 안전하고 조용 한 환경에서 홈스테이 할 초.중.고 학생 및 유학생 구합니다. ☎201-562-0522

트럭 파킹 스페이스 구함. 플러 싱.칼리지포인트.와이스톤 근교 ☎646-294-0022

-2/6/18------------------------------------------------------------------------------------------------------------------------------------------------------------------------------------------------------------------------------------------3/6/18---

-1/13/18----------------------------------------------------------------------------------------------------------------------------------------------------------------------------------------------------------------------------------------2/13/18---

베이사이드 211 35Ave 하우스 Suitcase 하나만 들고 올 수 있는 집 조용한 여성분 원함 ☎917-442-2009

201St 47Ave 베이사이드 한아름마트 건너편. 가구완비 인터넷, 유틸리티 포함 디파짓 없음. 여성분 원함 2월1일 입주가능 $480 ☎718-216-6073

718-219-1399 718-219-9914

벼룩시장 부동산 광고 문의 줄광고 $25. 박스광고 $35 / $45 뉴욕 / 뉴저지 동시 발행 www.findallny.com ☎718-359-0700 -------------------------------------------------------------------------------------------------------------------------------------------------------------------------------------------------------------------------------부----------------------

플러싱 157St 43Ave 깨끗한 베란다딸린 큰독방 침대 냉장고 유탈포함 $700 ☎917-732-3184

플러싱 전철 3분거리 큰방 같이쓰실분 (남자분) $400 ☎917-701-9121 -2/6/18------------------------------------------------------------------------------------------------------------------------------------------------------------------------------------------------------------------------------------------3/6/18---

베이사이드 206St 룸메이트 교통편리 한곳에서 취사 가능. 파킹 편리함 ☎917-418-5980 --------------------------------------------------------------------------------------------------------------------------------------------------------------------------------------------------------------------------------------------------JE---

7/8/17------------------------------------------------------------------------------------------------------------------------------------------------------------------------------------------------------------------------------------------PJ12/19/17

한국에서 홈스테이 하실 분 (미국에서 한국으로 오시는 분) 경기도 구리시 시내, 쾌적한 곳 ☎+82-10-2255-3557

파슨Blvd 37Ave 여학생 또는 직 장 여성 룸메이트 유틸리티 포함 $750 인터넷, 침대, 가구 완비 ☎718-570-6294

베이사이드 기차역 노던 근처 새로꾸민 큰독방. 침대 인터넷 유 틸포함 $750 새로꾸민 욕조, 베란다 딸린 큰 독방 침대 책상 인터넷 유틸포함 $1200 남자분 즉시입주 ☎917-830-6695

-1/13/18----------------------------------------------------------------------------------------------------------------------------------------------------------------------------------------------------------------------------------------2/13/18---

-1/30/18----------------------------------------------------------------------------------------------------------------------------------------------------------------------------------------------------------------------------------------2/24/18---

2/4/17---------------------------------------------------------------------------------------------------------------------------------------------------------------------------------------------------------------------------------------------6/30/18

-2/10/18------------------------------------------------------------------------------------------------------------------------------------------------------------------------------------------------------------------------------------------3/10/18-

-2/10/18------------------------------------------------------------------------------------------------------------------------------------------------------------------------------------------------------------------------------------------3/10/18-

-1/13/18----------------------------------------------------------------------------------------------------------------------------------------------------------------------------------------------------------------------------------------2/13/18---

NY세레니티 164St 플러싱 빅세일!깨끗, 조용 샤워장 있는 큰방 1인 $70 2인 $80 / 커플룸 큰방 1인 $60 2인$70 / 중간방 1 인 $45 2인 $50 / 싱글룸 1인 $40 20일 이상 $30 월$750 / 쉐어룸 1인 $30-$25. 12일 이상 $20. 1 인월 $350, $400 케이블 티비 인 터넷 파킹 카톡:Serenity2015 ☎718-813-1803

-2/3/18-----------------------------------------------------------------------------------------------------------------------------------------------------------------------------------------------------------------------------------------2/27/18---

72St 잭슨하잇 짐 적으신 분 큰방 퀸사이즈 침대 냉장고 유틸포함 $700 직장인 환영 2월 말 입주가능 ☎929-346-1251

(주인직접)

149St 34Ave 1층 룸메이트 침대, 냉장고, 에어컨 등 완비 유틸리티 포함 $700 ☎917-683-2609 -1/23/18----------------------------------------------------------------------------------------------------------------------------------------------------------------------------------------------------------------------------------------2/24/18---

-1/13/18----------------------------------------------------------------------------------------------------------------------------------------------------------------------------------------------------------------------------------------2/13/18---

2/4/17---------------------------------------------------------------------------------------------------------------------------------------------------------------------------------------------------------------------------------------------3/31/18

------------------------------------------------------------------------------------------------------------------------------------------------------------------------------------------------------------------------------------------------SERVICE

교회 예배실 렌트 소규모 개척교회 또는 기도팀에 게 렌트합니다. 시간 및 날짜 조절가능 2월 4일부터 예배가능 최다윗 집사 ☎917-599-3700 -1/20/18-----------------------------------------------------------------------------------------------------------------------------------------------------------------------------------------------------------------------------------------2/13/18--

작은 사무실 렌트 $500 히팅 에어컨 포함 ☎718-570-5959

창고 구합니다. 1.000sq 정도. 죠지 와싱턴 브릿지에서 가까운 곳에 위치한곳 ☎201-518-6550 ***------********----------------------------------------------------------------------------------------------------------------------------------------------------------------------------------------------------------------------------------------

큰 가라지 렌트합니다. 노던 167St $400 ☎646-250-7797

플러싱 146St 34Ave 지하창고 싸게 렌트함 대박식당 맞은편 (사무실 밑창고) ☎718-578-6162

--2/10/18-----------------------------------------------------------------------------------------------------------------------------------------------------------------------------------------------------------------------------------------3/17/18-

-------------------------------------------------------------------------------------------------------------------------------------------------------------------------------------------------------------------------------------------------------

---2/10/18-----------------------------------------------------------------------------------------------------------------------------------------------------------------------------------------------------------------------------------boss--3/10/18-


www.FindAllNY.com

2018년 2월 10일 (토)

B9

베이사이드 룸메

사무실 렌트

스페이스 렌트

한국 홈스테이

NY 홈스테이

NJ 홈스테이

노던 한블럭 202St 새집 홈스테이, 룸메이트 하실분 유틸리티, 세탁기 포함 버스정류장 5분이내, LIRR 근교(교통편리)

플러싱 유니온 한아름 근처 1층 920Sf 다용도실 학원 전문직 물리사 쇼룸 창고 밝은 창문 많은 공간 $1850 (에드워드 한)

플러싱 161St 1층 300Sf 풀지하 950Sf 차고포함 3대 파킹 가능 $2500 (주인직접)

한국으로 방문하실 때 홈스테이 하실 분 (미국에서 한국으로 오시는 분) 경기도 구리시 시내

교통편리(플러싱) 취사가능, 기본 식자재 제공 방문 관광가족 및 여성 (특히 JW) 환영 하루 $30 - $70

뉴저지 홈스테이 안전하고 조용한 환경에서 홈스테이 할 초.중.고 학생 및 유학생 구합니다.

347-323-0079

347-885-5866(부)

718-961-3934

+82)10-2255-3557

212-869-2366

201-562-0522

뉴저지 렌트

스페이스 렌트

사무실 렌트

식당 렌트

미용실 렌트

미용실 렌트매매

뉴저지 베이온 높은 천장의 최고급 아파트 2BR 2Bath $2200 커피샵, 꽃가게, 델리 렌트하실분 모십니다.

최고의 위치 노던선상에 위치한 넓은파킹장 스페이스 렌트합니다. (타투 아이리쉬. 바디.맛사지 등)

칼리지 포인트 Bjs 근처 이층 1,500SF 파킹 2대 다용도실, 화장실 포함 화물 엘리베이터 사용가능 $3,750

스태튼 아일랜드 인구 48만 한국 중국인 3만거주 한식당 없음 식당 기본설비 되어있음

유니온 파킹편한 미용실 체어렌트 하실 분 수요일 빼고 나머지 요일 9am-7:30pm 풀타임 구함 이발소하실 분도 가능

헤어, 스킨, 눈썹 할수있는 아담한 2층미용실

201-681-1002

646-932-0908

917-436-6944

917-696-7843

929-600-1234

718-539-3939

3BR 1Bath

3BR 1Bath

반지하 렌트

베이사이드 렌트

플러싱 렌트

천리마 이사

150 St 35Ave 3BR 2bath 새로 꾸민 brand new 발코니 $2500

240 St 68Ave. 3BR 1bath 힛, 차고, 런드리, 스토리지 룸 $2400

163 St 42Ave. 2BR

146St 23Ave 1BR $1600 146St 2층 3BR 1.5Bath 깨끗. 세탁기 $2100 206St 50Ave 3BR 1Bath 다포함 $2200

중소형·유학생·장거리 이사전문

반지하 렌트 $1400

노던 반블럭 단독 3,300 2차고, 긴드라이브웨이 3BR 1Bath ◆ 214St 38ave 1층+지하 3BR 3Bath 3,000 KW부동산 제니퍼

347-398-1225(부)

347-398-1225(부)

347-398-1225(부)

347-828-0090

646-606-8235(부)

718-902-4884

(부/데보라 정)

렌트나 매매원함 플러싱 유니온

IKEA 픽업&딜리버리 전문


B10

Saturday, February 10, 2018

www.FindAllNY.com

---2/3/18-----------------------------------------------------------------------------------------------------------------------------------------------------------------------------------------------------------------------------------------2/27/18-

최고의 위치 노던선상에 위치한 넓은파킹장 스페이스 렌트합니 다. 전화 문의주세요. (타투 아이리쉬.바디.맛사지 등.) ☎646-932-0908 8/15/17-----------------------------------------------------------------------------------------------------------------------------------------------------------------------------------------------------------------------------------------------GU

플러싱. 칼리지포인트 14Rd 에 위치한 2250 스퀘어피 트 넓이의 공장이나 창고로 쓰실 분. 저렴한가격에 렌트함교통편 리한곳 ☎347-582-0896 7/18/17------------------------------------------------------------------------------------------------------------------------------------------------------------------------------------------------------------------------------------------------JE

건물내 델리나 커피샵 미장원 렌 트하실분 연락주세요 ☎201-658-3892 ---2/3/18-----------------------------------------------------------------------------------------------------------------------------------------------------------------------------------------------------------------------------------------2/27/18-

뉴저지 베이온 최고급아파트 높은 천정 2BR 2Bath $2200 커피샆. 꽃가게. 델리 랜트하실분 모십니다. ☎201-823-1002 ☎201-681-1700 -------------------------------------------------------------------------------------------------------------------------------------------------------------------------------------------------------------------------------------------------------

벼룩시장 부동산 광고 문의 줄광고 $25. 박스광고 $45 뉴욕 / 뉴저지 동시 발행 ☎718-359-0700 -------------------------------------------------------------------------------------------------------------------------------------------------------------------------------------------------------------------------------부----------------------

뉴저지 리틀패리 럭셔리아파트 1BR 파킹가능 뉴욕가는 버스 바 로 앞 $1400 ☎201-658-3892

브루클린 3층 3BR 1Bath 렌트 J와 K 사이. 트레인 2, 5 종점에서 3블럭. 넓은 마루. 4인 이하. 히팅 포함 $1500 ☎646-977-2203

그레이넥 1BR 기차역부근 1층 나무 $1850 www.withfinder.com/사진보기 (부/제임스킴)☎646-539-9197 -------------------------------------------------------------------------------------------------------------------------------------------------------------------------------------------------------------------------------------------------------

베이테라스 16 Ave Bell Blvd 패밀리하우스 히팅포 함 1BR $1750 2BR $2350 ☎917-939-3940(부)

써니사이드 1BR 46St 43Ave 2층 나무 히팅과 온수 전철 1.5블럭 $1750 www.withfinder.com/사진보기 (부/제임스킴)☎646-539-9197

-----------------------------------------------------------------------------------------------------------------------------------------------------------------------------------------------------------------------------------------------------

-------------------------------------------------------------------------------------------------------------------------------------------------------------------------------------------------------------------------------------------------------

아스토리아 1BR $1590 전부 수 리, 힛, 핫워러 포함, 30St N트레 인 7분, 나무마루, 넓은 부엌과 리 빙룸, 고양이 OK,빌딩내 세탁기 (부/다니엘방) ☎718-578-0936

스프링필드 3BR1Bath 힛별도$2200 사라(진선미 부) ☎646-662-1076 ☎718-737-2677

---1/27/18-----------------------------------------------------------------------------------------------------------------------------------------------------------------------------------------------------------------------------------------2/20/18-

-------------------------------------------------------------------------------------------------------------------------------------------------------------------------------------------------------------------------------------------------------

-------------------------------------------------------------------------------------------------------------------------------------------------------------------------------------------------------------------------------------------------------

현대적인 스튜디오부터 편안한 독채까지 크레딧이 없거나 나쁜 크레딧 상관없이, 반려동물이 있 든지, 원하시는 집에 대한 조건만 알려주시면 만족하실때까지 아 니 그후까지도 책임지고 최선을 다하겠습니다. (Mr한/부) ☎646-283-1257 -------------------------------------------------------------------------------------------------------------------------------------------------------------------------------------------------------------------------------------------------------

플러싱 1BR 164St 36Ave 2층 기차역/노던도보 힛포함 $1650 (부/리차드박)☎718-926-2030

플러싱 1BR 156가/57Ave 1층 이지파킹 힛포함 $1350 (부/리차드박)☎718-926-2030 -------------------------------------------------------------------------------------------------------------------------------------------------------------------------------------------------------------------------------------------------------

플러싱 스튜디오 162St 46Ave 1층 버스 Q27도보 $1000 (부/리차드박)☎718-926-2030 -------------------------------------------------------------------------------------------------------------------------------------------------------------------------------------------------------------------------------------------------------

플러싱 3BR 2Bath 196St 50Ave 1층 나무 세탁기 $2900 www.withfinder.com/사진보기 (부/제임스킴)☎646-539-9197 -------------------------------------------------------------------------------------------------------------------------------------------------------------------------------------------------------------------------------------------------------

플러싱 2BR 160St 46Ave 1층 키세나파크 도보 힛포함 $1900 (부/리차드박)☎718-926-2030

플러싱 1BR 162St 47Ave 1층 1인적합 키세나파크 도보 힛포함 $1400 (부/리차드박)☎718-926-2030

-------------------------------------------------------------------------------------------------------------------------------------------------------------------------------------------------------------------------------------------------------

-------------------------------------------------------------------------------------------------------------------------------------------------------------------------------------------------------------------------------------------------------

-------------------------------------------------------------------------------------------------------------------------------------------------------------------------------------------------------------------------------------------------------


www.FindAllNY.com

2018년 2월 10일 (토)

B11

와잇스톤 렌트

150가 노던 렌트

브루클린 렌트

플러싱 1BR

플러싱 39 렌트

플러싱 149 렌트

15Ave 파슨스 Blvd 1Fam 1층 차고/2층 주방,다이 닝,거실,0.5Bath/3층 3BR 1Bath 대지40X109 부동산 세 $6,000 매매가 $838K

150가 노던근처 새 연립주택 1층 3방 3욕실 $3.000 다이앤 정

·부르클린 2층 2BR 발코니

히팅 포함 $1,700

플러싱 41/158St 아파트빌딩 1BR 마루 히팅 포함 $1400

112-45 39th Ave 2BR 1Full Bath 키친,나무바닥,타 일, 파킹,내고가능, 7전철버 스 2블락거리, 10분거리 스 카이뷰몰, 헨리(영어문의)

플러싱 149-06 노던 새로 지은 빌딩 Full 2BR 2Bath $2500, 워시머신, 스토브 모두 새것으로 완비

646-622-1076(부)

718-640-4431(부)

646-239-8327(부)

917-939-3940(부)

347-794-5810(부)

917-626-4260(부)

플러싱 3BR 2Bath 192St 53Ave 1층 나무 $2400 www.withfinder.com/사진보기 (부/제임스킴)☎646-539-9197

플러싱 2BR 153St 70Ave 1층 나무 히팅과 온수 주차별도 새로개조 $1800 www.withfinder.com/사진보기 (부/제임스킴)☎646-539-9197

플러싱 35/파슨 깨끗한 엘리베이 터빌딩 2BR 발코니 마루 히팅포 함 $2100 ☎917-939-3940(부)

플러싱141St 노던Blvd 한아름 바로앞 아파트빌딩 넓은 스튜디오 마루 히팅포함 $1350 ☎917-939-3940(부)

-------------------------------------------------------------------------------------------------------------------------------------------------------------------------------------------------------------------------------------------------------

-----------------------------------------------------------------------------------------------------------------------------------------------------------------------------------------------------------------------------------------------------

플러싱 35/파슨 코압아파트 2BR 히팅포함 $1900 코압 인터뷰 절차있음 ☎917-939-3940(부)

플러싱 노던 / 메인 최고급 빌딩 스튜디오 마루 히팅포함 $1600 ☎ 917-939-3940(부)

플러싱 1BR 170St 41Ave 1층 노던반블락 뒷뜰사용 힛포함 $1450 (부/리차드박)☎718-926-2030 -------------------------------------------------------------------------------------------------------------------------------------------------------------------------------------------------------------------------------------------------------

플러싱 3BR 2Bth 완전새집 159St 43Ave 주차별도 노던도 보 $2600 (부/리차드박)☎718-926-2030 -------------------------------------------------------------------------------------------------------------------------------------------------------------------------------------------------------------------------------------------------------

플러싱 1BR 깨끗한 반지하 160St 45Ave 버스 Q27 도보 모 두포함 $950 (부/리차드박)☎718-926-2030 -------------------------------------------------------------------------------------------------------------------------------------------------------------------------------------------------------------------------------------------------------

플러싱 1BR 반지하 유토피아 46Ave 버스도보 이지파킹 한분 만 ! 모두포함 $1100 (부/리차드박)☎718-926-2030 -------------------------------------------------------------------------------------------------------------------------------------------------------------------------------------------------------------------------------------------------------

플러싱 163 / Depot Rd 기차역 근처 스튜디오 유틸 전부포함 $1300 ☎917-939-3940(부) -------------------------------------------------------------------------------------------------------------------------------------------------------------------------------------------------------------------------------------------------------

플러싱 37/공영주차장 근처 최 고급 아파트 마루/힛 포함 2BR $2250 ☎917-939-3940(부)

-----------------------------------------------------------------------------------------------------------------------------------------------------------------------------------------------------------------------------------------------------

플러싱 2BR 1.5Bth 콘도 161St 46Ave 주차/세탁기 키세나파크 도보 버스 Q27 $2000 (부/리차드박)☎718-926-2030 -------------------------------------------------------------------------------------------------------------------------------------------------------------------------------------------------------------------------------------------------------

플러싱 2BR 192St 43Ave 기차역/노던도보 별도 창고공간 있음 가라지 별도 $150 $1900 (부/리차드박)☎718-926-2030 -------------------------------------------------------------------------------------------------------------------------------------------------------------------------------------------------------------------------------------------------------

플러싱 37AVe 공영주차장 근처 소음없는 콘크리트빌딩 넓은 1BR 마루 히팅포함 발코니$1950 ☎917-939-3940(부)

D 전철 1/2블럭 (25Ave) 파킹 히팅 포함 $1,800 ·부르클린 2층 3BR 13Ave 77St

-------------------------------------------------------------------------------------------------------------------------------------------------------------------------------------------------------------------------------------------------------

플러싱 1BR 147St 38Ave 5층 나무 히팅과 온수 발코니 $1700 www.withfinder.com/사진보기 (부/제임스킴)☎646-539-9197 -------------------------------------------------------------------------------------------------------------------------------------------------------------------------------------------------------------------------------------------------------

플러싱 3BR 2Bath 194St 40Ave 3층 나무 기차역 세탁기 1100sf. 주차별도 $2550 www.withfinder.com/사진보기 (부/제임스킴)☎646-539-9197

-----------------------------------------------------------------------------------------------------------------------------------------------------------------------------------------------------------------------------------------------------------------------------------------------------------------------------------------------------------------------------------------------------------------------------------------------------------------------------------------------------------

플러싱 3BR 1.5Bath 145St Willet Point 3층 나무 전부새것 히탕과 온수 새로개조 $2700 www.withfinder.com/사진보기 (부/제임스킴)☎646-539-9197

플러싱아파트 1BR 168St 36Ave 6층 나무 히팅과 온수 기차역 3.5 블럭 노던 2블럭 $1650 www.withfinder.com/사진보기 (부/제임스킴)☎646-539-9197

-------------------------------------------------------------------------------------------------------------------------------------------------------------------------------------------------------------------------------------------------------------------------------------------------------------------------------------------------------------------------------------------------------------------------------------------------------------------------------------------------------------

플러싱 2BR 160St 샌포드 2층 나무 히팅과 온수 $1750 www.withfinder.com/사진보기 (부/제임스킴)☎646-539-9197

플러싱 1BR 147St 38Ave 5층 나무 히팅과 온수 발코니 $1700 www.withfinder.com/사진보기 (부/제임스킴)☎646-539-9197

-------------------------------------------------------------------------------------------------------------------------------------------------------------------------------------------------------------------------------------------------------

플러싱 아파트 3BR 2Bath 168St 36Ave 5층 나무 히팅과 온수 기차역 $2200 www.withfinder.com/사진보기 (부/제임스킴)☎646-539-9197

-----------------------------------------------------------------------------------------------------------------------------------------------------------------------------------------------------------------------------------------------------

플러싱 36 / 168St 3BR 2Bath 깨끗한 엘리베이터 빌딩 기차역 도보거리 히팅포함 $2100 ☎917-939-3940(부)

플러싱 38/파슨 깨끗한 엘리베 이터 빌딩. 마루 히팅포함 넓은 스튜디오 새로수리 $1650 2BR $2050 ☎917-939-3940(부)

-------------------------------------------------------------------------------------------------------------------------------------------------------------------------------------------------------------------------------------------------------

------------------------------------------------------------------------------------------------------------------------------------------------------------------------------------------------------------------------------------------------------

플러싱 37 / 공영주차장 근처 최고급 빌딩 층간소음 없는 콘크 리트 바닥 2BR 2Bath 발코니 마 루 히팅 포함 $2450 ☎ 917-939-3940(부)

1플러싱 노던/메인 최고급 콘트 리트 빌딩, 마루/힛 포함. 넓은 1BR 발코니 $1850 2BR $2200 ☎917-939-3940(부)

04/01-------------------------------------------------------------------------------------------------------------------------------------------------------------------------------------------------------------------1----Y---------------------09/31/1

-----------------------------------------------------------------------------------------------------------------------------------------------------------------------------------------------------------------------------------------------------

플러싱 157St 18Ave 2BR 마루 히팅 포함 $1750 ☎917-939-3940(부)

플러싱 34/유니온 고층 콘크리트 빌딩 발코니 마루 힛 포함 2BR $2250 3BR 2Bath 완전수 리 $2600 ☎ 917-939-3940(부)

파슨 38Ave 새컨디션 힛포함 전 기별도 $1625 사라(진선미 부) ☎646-662-1076 ☎718-737-2677

-----------------------------------------------------------------------------------------------------------------------------------------------------------------------------------------------------------------------------------------------------

-------------------------------------------------------------------------------------------------------------------------------------------------------------------------------------------------------------------------------------------------------

-------------------------------------------------------------------------------------------------------------------------------------------------------------------------------------------------------------------------------------------------------

-------------------------------------------------------------------------------------------------------------------------------------------------------------------------------------------------------------------------------------------------------

플러싱 스튜디오 한양슈퍼 뒤 바닥 타일 주차편리 기차역 전부포함 $1200 www.withfinder.com/사진보기 (부/제임스킴)☎646-539-9197 -------------------------------------------------------------------------------------------------------------------------------------------------------------------------------------------------------------------------------------------------------

플러싱 3BR 1.5Bath 149St 41Ave 3층 나무 히팅포함 주차1대 $2400 www.withfinder.com/사진보기 (부/제임스킴)☎646-539-9197 -------------------------------------------------------------------------------------------------------------------------------------------------------------------------------------------------------------------------------------------------------

04/01-------------------------------------------------------------------------------------------------------------------------------------------------------------------------------------------------------------------1----Y---------------------09/31/1

-------------------------------------------------------------------------------------------------------------------------------------------------------------------------------------------------------------------------------------------------------------------------------------------------------------------------------------------------------------------------------------------------------------------------------------------------------------------------------------------------------------

⧕ၵ௝ʑÕ⇶ ᱥʑ ༊ᙹ ᵲ⇶ ᅕᙹ॒ ᔢ⦹ᙹࠥ aᜅŖᔍ ⪵ᰆᝅ ᅕᯝ్ ᖙ໕‫ ݡ‬᫶ᝅ ᇡᨭ ᝒⓍ ݆✙ ⯩❦ ᜅ⥥ย⑉్ ⥭్ၮ᮹༉ुᖅ⊹

718-644-5071


B12

Saturday, February 10, 2018

www.FindAllNY.com

리틀넥 2BR 렌트

207St 58Ave

210St 41 Ave

195, 200, 206

161St 46Ave

Hillside Ave

노던불르버드 선상 2BR 렌트 ,2층집. 국민학교. 5분, 중학교. 15분 기차역 8분/ 리빙룸 있음, 힛포함. 1850불

Whole house (1, 2층) $1,800(힛, 전기 별도) 아웃사이드 사용가능 런드리 없음, 지하 주인이 삼, 대문따로

2층 2BR 1Bath 힛포함 1파킹 $2.000 (아기 Ok) Whole House 1층 리빙룸, 다이닝 키친 2층 방2개, 부엌 1개 $1,800

195St 57Ave 3BR $2350 200St 45Ave 2BR, 다락방 전부포함 $1300 206St 50Ave 전부포함 $2000

바킹, 발코니$2450 207St 56Ave 독채 2Br 2Bath $2600

Hillside Ave 168St F train 1분거리 맨해튼 20분 1BR (힛포함) $1,600 2BR (힛포함) $1,800

646-413-2633

718-344-7968(부)

718-344-7968(부)

718-344-7968(부)

718-344-7968(부)

718-344-7968(부)

플러싱 1BR

플러싱 APT렌트

플러싱 3BR

브롱스 렌트/매매

3BR 1Bath

그랜드 AVE

플러싱 34Ave 파슨 코압아파트1BR 마루 히팅포함 코압인터뷰있음 $1375

좋은집 6BR 3Bath 3거실,1 부엌,3층,월렌트$4500,키 세나파크근처,Q27,2층,3BR 2Bath 월렌트$2300, 엘머스트 4BR,2.5Bath 월렌트 $3500 (영어문의)

3BR 1Bath 개인주택 2층 야외 Patio 내부 완전수리. 월 $2,500 학군좋음 PS 21& JHS 185(주인직접)

브롱스 가까운 용커스 (안전한 지역)18년된 위치 좋은 가게 건강상,렌트 서브 리스 매매가능, 장사자신 있 는분,1500SF 렌트 3천불, 지하실 있음

3BR 1bath

엠허스트 2F/H 2층 2BR 안전 조

거실없이 1층 $1750

917-939-3940(부)

718-888-3373

718-320-1212

347-398-1225(부)

파슨 루즈벨트Ave 스튜디오 남 향 힛포함 전기별도 새 컨디션 강아지 가능^-^ $1450 사라(진선미 부) ☎646-662-1076 ☎718-737-2677

646-243-8178(En.)

917-560-8852

유니온 34Ave 아파트 스튜디오 발코니 힛포함 전기별도 $1650 사라(진선미 부) ☎646-662-1076 ☎718-737-2677

칼리지포인트 3BR 2Bath 123St Lax Ave 2층 나무 $2300 www.withfinder.com/사진보기 (부/제임스킴)☎646-539-9197

-----------------------------------------------------------------------------------------------------------------------------------------------------------------------------------------------------------------------------------------------------------------------------------------------------------------------------------------------------------------------------------------------------------------------------------------------------------------------------------------------------------------------------------------------------------------------------------------------------------------------------------------------------------------------------------------------------------------------------------------------------------------

메인스트릿 노던 고급 아파트 스 튜디오 발코니 힛포함 전기별도 $1675 사라(진선미 부) ☎646-662-1076 ☎718-737-2677

195가 40Ave 반지하 1BR1Bath 유틸포함 $1200 사라(진선미 부) ☎646-662-1076 ☎718-737-2677

파슨 35Ave 스튜디오 힛포함 전 기별도$1550 사라(진선미 부) ☎646-662-1076 ☎718-737-2677

-------------------------------------------------------------------------------------------------------------------------------------------------------------------------------------------------------------------------------------------------------

칼리지포인트 2BR 125St 9Ave 1층 나무 $1600 www.withfinder.com/사진보기 (부/제임스킴)☎646-539-9197

칼리지포인트 1BR 114St 14Ave 바닥타일 전부포함 $1000 www.withfinder.com/사진보기 (부/제임스킴)☎646-539-9197

-----------------------------------------------------------------------------------------------------------------------------------------------------------------------------------------------------------------------------------------------------

-----------------------------------------------------------------------------------------------------------------------------------------------------------------------------------------------------------------------------------------------------

칼리지포인트 2BR 2Bath 118St 3Ave 높은 1층 세탁기 주차1대 전부새것 넓은거실 바닷가전경 $2500 www.withfinder.com/사진보기 (부/제임스킴)☎646-539-9197

칼리지포인트 1BR 121St 9Ave 바닥타일 전부포함 주차1대 $900 www.withfinder.com/사진보기 (부/제임스킴)☎646-539-9197

칼리지포인트 3BR 121St 25Ave 2층 나무 히팅과 온수 $2200 www.withfinder.com/사진보기 (부/제임스킴)☎646-539-9197 -----------------------------------------------------------------------------------------------------------------------------------------------------------------------------------------------------------------------------------------------------

칼리지포인트 2BR 125St 9Ave 1층 나무 새로개조 작은방 1개 $1600 www.withfinder.com/사진보기 (부/제임스킴)☎646-539-9197

파킹편리. 가구일절 침대 식탁 옷 장.$1500 전화 개스 별도 핫워터 히팅 포함. 룸메 2명가능(1인당 $800) 모든것 포함 주인없음

718-672-6885 칼리지포인트 2BR 114St 14Ave 바닥 타일 전부포함 조용한동네 $1000 www.withfinder.com/사진보기 (부/제임스킴)☎646-539-9197 -----------------------------------------------------------------------------------------------------------------------------------------------------------------------------------------------------------------------------------------------------

-----------------------------------------------------------------------------------------------------------------------------------------------------------------------------------------------------------------------------------------------------

-------------------------------------------------------------------------------------------------------------------------------------------------------------------------------------------------------------------------------------------------------------------------------------------------------------------------------------------------------------------------------------------------------------------------------------------------------------------------------------------------------------

-----------------------------------------------------------------------------------------------------------------------------------------------------------------------------------------------------------------------------------------------------

-------------------------------------------------------------------------------------------------------------------------------------------------------------------------------------------------------------------------------------------------------

용 깨끗 교통편리 전철 버스 3분.

칼리지포인트 2BR 듀플렉스 3층 칼포Blvd 25Ave 펫OK 주차포함 힛포함 $1800 (부/리차드박)☎718-926-2030

-----------------------------------------------------------------------------------------------------------------------------------------------------------------------------------------------------------------------------------------------------

칼리지포인트 새집 3BR 2Bath 119St 7Ave 1층 나무 $2300 www.withfinder.com/사진보기 (부/제임스킴)☎646-539-9197 -----------------------------------------------------------------------------------------------------------------------------------------------------------------------------------------------------------------------------------------------------

칼리지포인트 3BR 2Bath 127St 6Ave. 2층 나무 전부새것 주차 편리 넓은거실 환하고 깨끗 $2100 www.withfinder.com/사진보기 (부/제임스킴)☎646-539-9197 -----------------------------------------------------------------------------------------------------------------------------------------------------------------------------------------------------------------------------------------------------


www.FindAllNY.com

2018년 2월 10일 (토)

플러싱아파트 1BR

칼리지포인트 3BR

베이사이드 1BR

1BR 168St 36Ave 6층(Top) 히팅과온수 넓은침실 기차역 노던2블럭 $1630 www.withfinder.com

2Bath 127St 6Ave 2층 나무 주차편리 새로개조 넓은거실과 주방 전부새것 바닷가와 공원 $2100 www.withfinder.com

211St 23Ave. 바닥타일 전부포함 전부새것 뒷마당 햇빛밝음 $1200 www.withfinder.com

646-539-9197(부)

646-539-9197(부)

646-539-9197(부)

베이사이드 1BR

플러싱 스튜디오

리틀넥 새집 3BR

157St 15Ave 전부새것 바닥타일 전부포함 넓은거실 $1600 www.withfinder.com

한양수퍼 뒷편 34Ave.. 바닥타일 전부포함 주차편리 환하고 깨끗 기차역 $1200 www.withfinder.com

2Bath 248St 1층 또는 2층 나무바닥 주차1대 세탁기 $2600 www.withfinder.com

646-539-9197(부)

646-539-9197(부)

646-539-9197(부)

-------------------------------------------------------------------------------------------------------------------------------------------------------------------------------------------------------------------------------------------------------

-------------------------------------------------------------------------------------------------------------------------------------------------------------------------------------------------------------------------------------------------------

-----------------------------------------------------------------------------------------------------------------------------------------------------------------------------------------------------------------------------------------------------------------------------------------------------------------------------------------------------------------------------------------------------------------------------------------------------------------------------------------------------------

와잇스톤 2BR 166St 24Ave 2층 나무 $1850 www.withfinder.com/사진보기 (부/제임스킴)☎646-539-9197

와잇스톤 2BR 147St 24Ave 2층 나무 히팅과 온수 주차편리 출입문 별도 $1800 www.withfinder.com/사진보기 (부/제임스킴)☎646-539-9197 -----------------------------------------------------------------------------------------------------------------------------------------------------------------------------------------------------------------------------------------------------

프레쉬메도우 스튜디오 150St 72Ave 1층 나무 $1350 www.withfinder.com/사진보기 (부/제임스킴)☎646-539-9197 -------------------------------------------------------------------------------------------------------------------------------------------------------------------------------------------------------------------------------------------------------

-----------------------------------------------------------------------------------------------------------------------------------------------------------------------------------------------------------------------------------------------------

와잇스톤 새집 2BR 157St 15Ave 바닥 타일 전부포함 $1600 www.withfinder.com/사진보기 (부/제임스킴)☎646-539-9197 -----------------------------------------------------------------------------------------------------------------------------------------------------------------------------------------------------------------------------------------------------

와잇스톤 2BR 3층 144St 23Ave 깨끗함 모두포함 $1650 (부/리차드박)☎718-926-2030

와잇스톤 2BR 2층+넓게 꾸민 에틱 프랜시스/17Ave 수리 이지 파킹 $2300 (부/리차드박)☎718-926-2030 -------------------------------------------------------------------------------------------------------------------------------------------------------------------------------------------------------------------------------------------------------

와잇스톤 3BR 2Bath 149St 15Rd 수리 1200SF 힛포함 $2400 (부/리차드박)☎718-926-2030

-------------------------------------------------------------------------------------------------------------------------------------------------------------------------------------------------------------------------------------------------------------------------------------------------------------------------------------------------------------------------------------------------------------------------------------------------------------------------------------------------------------

와잇스톤 2BR 2층 166St 24Rd 세탁기/건조기 사용 $1850 (부/리차드박)☎718-926-2030

와잇스톤 18Ave 157 St 패밀리하우스 2br마루 히팅포함 $1750 ☎917-939-3940(부)

-----------------------------------------------------------------------------------------------------------------------------------------------------------------------------------------------------------------------------------------------------------------------------------------------------------------------------------------------------------------------------------------------------------------------------------------------------------------------------------------------------------

와잇스톤 3BR 2Bth 1층 154St 20Rd 새집 주차 $2500 (부/리차드박)☎718-926-2030 -------------------------------------------------------------------------------------------------------------------------------------------------------------------------------------------------------------------------------------------------------

와잇스톤 2BR 146St 20Ave 펫 OK 주차/힛포함 $1900 (부/리차드박)☎718-926-2030 -------------------------------------------------------------------------------------------------------------------------------------------------------------------------------------------------------------------------------------------------------

와잇스톤 2BR 151St 17Ave 깨끗한 컨디션 이지파킹 $1900 (부/리차드박)☎718-926-2030 -------------------------------------------------------------------------------------------------------------------------------------------------------------------------------------------------------------------------------------------------------

와잇스톤 독채 4BR 1Bath 141St 14Ave 가라지 주차3대 큰뒷뜰 세 탁기 $2900 (부/리차드박)☎718-926-2030

와잇스톤 20Ave / 파슨 Blvd 깨끗한 엘리베이터빌딩 스튜디 오 마루 히팅 포함 발코니 $1575 ☎ 917-939-3940(부) -------------------------------------------------------------------------------------------------------------------------------------------------------------------------------------------------------------------------------------------------------

와잇스톤 3BR 1.5Bath 145St 윌렛포인트 3층 나무 히팅과 온 수 $2700 www.withfinder.com/사진보기 (부/제임스킴)☎646-539-9197 -----------------------------------------------------------------------------------------------------------------------------------------------------------------------------------------------------------------------------------------------------

와잇스톤 새집 3BR 2Bath Murray 22Ave 2층 나무 1400Sf $2500 www.withfinder.com/사진보기 (부/제임스킴)☎646-539-9197

B13

현대적인 스튜디오부터 편안한 독채까지 크레딧이 없거나 나쁜 크레딧 상관없이, 반려동물이 있 든지, 원하시는 집에 대한 조건만 알려주시면 만족하실때까지 아 니 그후까지도 책임지고 최선을 다하겠습니다 (Mr한/부)☎646-283-1257

베이사이드 2BR 2Bath 211St 23Ave 1층나무 $2200 www.withfinder.com/사진보기 (부/제임스킴)☎646-539-9197 베이사이드 아파트 1BR 216St 77Ave 4층 나무 히팅과 온수 주차가능 $1700 www.withfinder.com/사진보기 (부/제임스킴)☎646-539-9197 -------------------------------------------------------------------------------------------------------------------------------------------------------------------------------------------------------------------------------------------------------

베이사이드 3BR 200St 16Ave 바닥 타일 히팅과 온수 전부새것 환하고 깨끗 $1700 www.withfinder.com/사진보기 (부/제임스킴)☎646-539-9197 -------------------------------------------------------------------------------------------------------------------------------------------------------------------------------------------------------------------------------------------------------

-------------------------------------------------------------------------------------------------------------------------------------------------------------------------------------------------------------------------------------------------------

베이사이드3BR 2Bath 213St 79Ave 2층 나무 새로개조 전무포함 많은 창문 $2500 (부/제임스킴)☎646-539-9197 -------------------------------------------------------------------------------------------------------------------------------------------------------------------------------------------------------------------------------------------------------

베이사이드 1BR 211St 23Ave 바닥 타일 전부포함 $1100 www.withfinder.com/사진보기 (부/제임스킴)☎646-539-9197 -------------------------------------------------------------------------------------------------------------------------------------------------------------------------------------------------------------------------------------------------------

베이사이드 58/201st 4BR 3Bath 독채렌트 $3200 ☎917-939-3940(부)

베이사이드16Ave Bell Blvd 패밀리하우스 2층 히팅포함 세탁시설 $2300 ☎917-939-3940(부) -----------------------------------------------------------------------------------------------------------------------------------------------------------------------------------------------------------------------------------------------------

-------------------------------------------------------------------------------------------------------------------------------------------------------------------------------------------------------------------------------------------------------

-------------------------------------------------------------------------------------------------------------------------------------------------------------------------------------------------------------------------------------------------------

-------------------------------------------------------------------------------------------------------------------------------------------------------------------------------------------------------------------------------------------------------

베이사이드 3BR 2Bath 232St 64Ave 1층 나무 $2200 www.withfinder.com/사진보기 (부/제임스킴)☎646-539-9197

베이사이드 3BR 2Bath 194St 40Ave 세탁기 기차역/노던도보 $2400 (부/리차드박)☎718-926-2030

베이사이드 3BR 2Bath 204St 45Ave 2층 노던1블락 $2500 (부/리차드박)☎718-926-2030 -------------------------------------------------------------------------------------------------------------------------------------------------------------------------------------------------------------------------------------------------------

베이사이드 3BR 2Bath 211St 23Ave 2층 나무 $2450 www.withfinder.com/사진보기 (부/제임스킴)☎646-539-9197 -------------------------------------------------------------------------------------------------------------------------------------------------------------------------------------------------------------------------------------------------------

베이사이드 3BR Bell Blvd 61Ave 2층 나무 $2300 www.withfinder.com/사진보기 (부/제임스킴)☎646-539-9197 -------------------------------------------------------------------------------------------------------------------------------------------------------------------------------------------------------------------------------------------------------

베이사이드 2BR 204St 45Ave 3층 깨끗함 노키친 노던도보 모두포함 $1300 (부/리차드박)☎718-926-2030

베이사이드 3BR 1Bath 194St 43Ave 노던/기차역도보 힛포함 $2100 (부/리차드박)☎718-926-2030

베이사이드 23Ave 211St 패밀리하우스 3BR 2Bath 마루 파킹포함 $2300 ☎917-939-3940(부) -----------------------------------------------------------------------------------------------------------------------------------------------------------------------------------------------------------------------------------------------------

-------------------------------------------------------------------------------------------------------------------------------------------------------------------------------------------------------------------------------------------------------

베이사이드 3BR 1Bath 200St 16Ave 높은 반지하 이지파킹 버스 Q16 도보 힛포함 $1600 (부/리차드박)☎718-926-2030

베이사이드 1BR 223St 56Rd 1층 넓고 깨끗한 거실/방/부엌 힛 포함 $1500 (부/리차드박)☎718-926-2030 -------------------------------------------------------------------------------------------------------------------------------------------------------------------------------------------------------------------------------------------------------

-------------------------------------------------------------------------------------------------------------------------------------------------------------------------------------------------------------------------------------------------------

베이사이드 1BR 214St 42Ave 2층 기차역/노던 힛포함 $1650 (부/리차드박)☎718-926-2030

베이사이드 2BR 210St 41Ave 노던/기차역 주차/힛포함 $2000 (부/리차드박)☎718-926-2030 -------------------------------------------------------------------------------------------------------------------------------------------------------------------------------------------------------------------------------------------------------

-------------------------------------------------------------------------------------------------------------------------------------------------------------------------------------------------------------------------------------------------------

베이사이드 독채 3BR 2Bath 217St 46Ave 노던/기차역도보 $3200 (부/리차드박)☎718-926-2030

베이사이드 독채 3BR 2.5Bath 23St 69Rd 랜치 주차/세탁기/뒷 뜰 $3200 (부/리차드박)☎718-926-2030 -------------------------------------------------------------------------------------------------------------------------------------------------------------------------------------------------------------------------------------------------------

-------------------------------------------------------------------------------------------------------------------------------------------------------------------------------------------------------------------------------------------------------

베이사이드 독채 3BR 1.5Bath 199St 47Ave 주차3대 세탁기 뒷 뜰 $2900 (부/리차드박)☎718-926-2030

베이사이드 2BR 226St 69Ave 24층 나무 $1600 www.withfinder.com/사진보기 (부/제임스킴)☎646-539-9197 -------------------------------------------------------------------------------------------------------------------------------------------------------------------------------------------------------------------------------------------------------

-------------------------------------------------------------------------------------------------------------------------------------------------------------------------------------------------------------------------------------------------------

베이사이드 18/벨 Blvd 깨끗한 엘리베이터빌딩 완전수리 발코 니 마루 힛 포함 스튜디오 $1750 1BR $2000 2BR $2300 넓은 2BR 1.5Bath $2400 ☎917-939-3940(부) -----------------------------------------------------------------------------------------------------------------------------------------------------------------------------------------------------------------------------------------------------

베이사이드 3BR 2Bath 216St 15Ave 1층 나무 전부 포함 세탁기 $2400 www.withfinder.com/사진보기 (부/제임스킴)☎646-539-9197 -------------------------------------------------------------------------------------------------------------------------------------------------------------------------------------------------------------------------------------------------------


B14

Saturday, February 10, 2018

www.FindAllNY.com


www.FindAllNY.com

2018년 2월 10일 (토)

B15

드랍샵 런드리

NJ 네일 매매

맨해튼 스파 매매

세탁소건물 급매

베이글 가게

세탁소 급매

주인은퇴 가게 맨하탄 이스트 84가 매매 $7만 5천 렌트 $3280 연매상 $15만 리스 6년9개월 (핼랜 서)

뉴져지 포트리 네일가게 매매합니다. 꼭사실분만 연락요망 주인직접

메사츄세스 주 옆 상가 건물에서 $700 렌트 수입 건물포함 33만불

멘하탄(30년된 성업중인 가게)

롱아일랜드 딕스힐, 좋은 동네에 위치한

413-592-2200(D)

스파매매 맨해튼위치 룸4 휴게실2 샤워룸1 단골손님 확보된 오래된 가게 (주인직접)

년매상 $ 110만불 주인 은퇴관계로.

세탁소 급매, 가격: 18만5천 (주인직접)

917-620-2562(부)

201-694-8226

646-945-0658

413-335-4936(N)

973-525-7070

631-549-3724

프렌시스루이스 블러바드 26Ave 워크인 2BR 1Bath 전기별도 $1500 사라(진선미 부) ☎646-662-1076 ☎718-737-2677

파슨 블러바드 35Ave 1BR 1Bath 힛포함 전기별도 $1900 사라(진선미 부) ☎646-662-1076 ☎718-737-2677

-------------------------------------------------------------------------------------------------------------------------------------------------------------------------------------------------------------------------------------------------------

-------------------------------------------------------------------------------------------------------------------------------------------------------------------------------------------------------------------------------------------------------

유니온 34Ave 2.5BR 2Bath $2550 사라(진선미 부) ☎646-662-1076 ☎718-737-2677

유니온 34Ave 고급 아파트 1BR 1Bath 힛포함 전기별도 $1900 사라(진선미 부) ☎646-662-1076 ☎718-737-2677

-------------------------------------------------------------------------------------------------------------------------------------------------------------------------------------------------------------------------------------------------------

146가 26Ave 2층 3BR 1.5Bath 힛포함 전기별도 $2250 사라(진선미 부) ☎646-662-1076 ☎718-737-2677 -------------------------------------------------------------------------------------------------------------------------------------------------------------------------------------------------------------------------------------------------------

-------------------------------------------------------------------------------------------------------------------------------------------------------------------------------------------------------------------------------------------------------

95St 40Ave 새집 1층 3BR 2Bath+지하 세탁시설 완비 유틸 별도 $2800 사라(진선미 부) ☎646-662-1076 ☎718-737-2677 -------------------------------------------------------------------------------------------------------------------------------------------------------------------------------------------------------------------------------------------------------

161가 46Ave 2층 2BR 1Bath(3BR로도 사용 가능) 힛별도 $1650 사라(진선미 부) ☎646-662-1076 ☎718-737-2677 -------------------------------------------------------------------------------------------------------------------------------------------------------------------------------------------------------------------------------------------------------

베이사이드 반지하 1BR 1Bath 전기별도 $1350 사라(진선미 부) ☎646-662-1076 ☎718-737-2677 -----------------------------------------------------------------------------------------------------------------------------------------------------------------------------------------------------------------------------------------------------

파슨 블러바드 38Ave 1BR 1Bath 힛포함 전기별도 $1850 사라(진선미 부) ☎646-662-1076 ☎718-737-2677 -------------------------------------------------------------------------------------------------------------------------------------------------------------------------------------------------------------------------------------------------------

유니온 37Ave 새콘도 첫입주 1BR 1Bath 유틸 별도 $2000 사라(진선미 부) ☎646-662-1076 ☎718-737-2677 -------------------------------------------------------------------------------------------------------------------------------------------------------------------------------------------------------------------------------------------------------

메인 스트릿 노던 블러바드 고급 아파트 힛포함 전기별도 $1950 사라(진선미 부) ☎646-662-1076 ☎718-737-2677 -------------------------------------------------------------------------------------------------------------------------------------------------------------------------------------------------------------------------------------------------------

160가 45Ave 2층 4BR2Bath 힛포함 전기별도 $2880 사라(진선미 부) ☎646-662-1076 ☎718-737-2677

-------------------------------------------------------------------------------------------------------------------------------------------------------------------------------------------------------------------------------------------------------

더글라스톤 3BR 2Bath 힛 포함 런드리, 가라지, 지하일부 $2450 ☎347-398-1225(부) -------------------------------------------------------------------------------------------------------------------------------------------------------------------------------------------------------------------------------------------------------

더글라스톤 44 / 더글라스톤 파 크웨이 깨끗한 엘리베이터 빌딩 마루 힛 포함 기차역도보 대형 1BR $2100 스튜디오 $1700, 2BR $2300 ☎917-939-3940(부) -------------------------------------------------------------------------------------------------------------------------------------------------------------------------------------------------------------------------------------------------------

롱아일랜드 2BR 그레잇넥 사우스학군 펫OK 기차역도보 이지파킹 $2300 (부/리차드박)☎718-926-2030 -------------------------------------------------------------------------------------------------------------------------------------------------------------------------------------------------------------------------------------------------------

롱아일랜드 2BR 1층 그레잇넥 사우스학군 새시설 기차역/버스 도보 모두포함 $2600 (부/리차드박)☎718-926-2030 -------------------------------------------------------------------------------------------------------------------------------------------------------------------------------------------------------------------------------------------------------

-------------------------------------------------------------------------------------------------------------------------------------------------------------------------------------------------------------------------------------------------------

유니온 32Ave 1BR 1Bath 힛포함 전기별도 $1800 사라(진선미 부) ☎646-662-1076 ☎718-737-2677

157가 42Ave 2충 3BR1.5Bath 파킹포함 $2300 사라(진선미 부) ☎646-662-1076 ☎718-737-2677

---------------------------------------------------------------------------------------------------------------------------------------------------------------------------------------------------------------------------------------------------

-------------------------------------------------------------------------------------------------------------------------------------------------------------------------------------------------------------------------------------------------------

파슨 38Ave 2BR 1Bath 힛포함 전기별도 $2100 사라(진선미 부) ☎646-662-1076 ☎718-737-2677

파슨 35Ave 1층 1BR1Bath 힛포함 전기별도 $1800 사라(진선미 부) ☎646-662-1076 ☎718-737-2677

-------------------------------------------------------------------------------------------------------------------------------------------------------------------------------------------------------------------------------------------------------

-------------------------------------------------------------------------------------------------------------------------------------------------------------------------------------------------------------------------------------------------------

파슨 35Ave 2BR 1Bath 힛포함 전기별도 $2200 사라(진선미 부) ☎646-662-1076 ☎718-737-2677 -------------------------------------------------------------------------------------------------------------------------------------------------------------------------------------------------------------------------------------------------------

유니온 34Ave 2BR 1Bath 힛포 함 전기별도 $2250 사라(진선미 부) ☎646-662-1076 ☎718-737-2677

주인 직접 더글라스톤 최고학군 3BR2BH파킹&힛&쿳개스포함 $2400 2BR 파킹& 힛포함 $2000 3BR 힛포함 $1450(반지하) 마루 버스 공원 슈퍼 몰 도보거리 강아지 OK 최고 26학군 국교 집앞 픽업 ☎718-406-5997 --2/3/18------------------------------------------------------------------------------------------------------------------------------------------------------------------------------------------------------------------------------------------2/27/18-

더글라스톤 2BR 2Bath 242St 68Ave 1층 나무 히팅과 온수 지하 세탁실 주차1대 $2200 www.withfinder.com/사진보기 (부/제임스킴)☎646-539-9197 -------------------------------------------------------------------------------------------------------------------------------------------------------------------------------------------------------------------------------------------------------

-------------------------------------------------------------------------------------------------------------------------------------------------------------------------------------------------------------------------------------------------------

1158가 41Ave 3층 3BR 2Bath 발코니 유틸별도 $2200 사라(진선미 부) ☎646-662-1076 ☎718-737-2677

-------------------------------------------------------------------------------------------------------------------------------------------------------------------------------------------------------------------------------------------------------

리틀넥 새집 2BR 256St 전부포함 바닥타일 800Sf 환하고 깨끗 $1700 www.withfinder.com/사진보기 (부/제임스킴)☎646-539-9197 -------------------------------------------------------------------------------------------------------------------------------------------------------------------------------------------------------------------------------------------------------

-------------------------------------------------------------------------------------------------------------------------------------------------------------------------------------------------------------------------------------------------------

유니온 34Ave 22BR2Bath 힛포 함 전기별도 $2350 사라(진선미 부) ☎646-662-1076 ☎718-737-2677

리틀넥 3BR 2Bath 248St 1층 또는 2층 나무 주차1대 세탁기 $2600 www.withfinder.com/사진보기 (부/제임스킴)☎646-539-9197

리틀넥 새집 2BR 256St 전부포함 바닥타일 800Sf 환하고 깨끗 $1700 www.withfinder.com/사진보기 (부/제임스킴)☎646-539-9197 -------------------------------------------------------------------------------------------------------------------------------------------------------------------------------------------------------------------------------------------------------

리틀넥 2BR 새시설 245St 60Ave 반지하 세탁기 사용가능 모두포함 $1400 (부/리차드박)☎718-926-2030 -------------------------------------------------------------------------------------------------------------------------------------------------------------------------------------------------------------------------------------------------------

리틀넥 2BR 1층 248St 노던 반블락 기차역도보 모두포함 $1950 (부/리차드박)☎718-926-2030 -------------------------------------------------------------------------------------------------------------------------------------------------------------------------------------------------------------------------------------------------------

더글라스톤 2BR 1층 240St 68Ave PS221 MS67 주차/세탁 기/힛포함 $1900 (부/리차드박)☎718-926-2030 -------------------------------------------------------------------------------------------------------------------------------------------------------------------------------------------------------------------------------------------------------

리틀넥 69Ave 3BR 2Bath 힛포 $2650 사라(진선미 부) ☎646-662-1076 ☎718-737-2677 -------------------------------------------------------------------------------------------------------------------------------------------------------------------------------------------------------------------------------------------------------

빌딩 코로나 4패밀리 12 유닛 6주차 2008년 건축 25년 택스 감 면 년수익 $17만8천 가 $3.49M (부/리차드박)☎718-926-2030 -------------------------------------------------------------------------------------------------------------------------------------------------------------------------------------------------------------------------------------------------------

1패밀리 리틀넥 50*100 콜로니얼 꾸민지하 5BR 4Bath 택스 $11180 가 $1.19M (부/리차드박)☎718-926-2030 -------------------------------------------------------------------------------------------------------------------------------------------------------------------------------------------------------------------------------------------------------

1패밀리 플러싱 40*100 벽돌 3BR 2Bath 꾸민지하 택스 $7260 가 $85만 (부/리차드박)☎718-926-2030 -------------------------------------------------------------------------------------------------------------------------------------------------------------------------------------------------------------------------------------------------------

코네티컷 네일 살롱 매매 1200Sf R2 P7 M6 내부 손볼 곳 없음. 매매가 $8만 ☎475-225-3019 ☎203-313-2706 ---2/3/18---------------------------------------------------------------------------------------------------------------------------------------------------------------------------------------------------------------------------------------2/27/18---

플러싱 35/파슨 노던 한블럭 1BR 코압 월유지비 $470 2년 후 렌트 허용 직계가족 대신 구입 허 용 $279,000 ☎917-939-3940(부) ----------------------------------------------------------------------------------------------------------------------------------------------------------------------------------------------------------------------------------------------------

1패밀리 북플러싱 랜치 하우스 벽돌집 좋은위치 꾸민지하 최근수리 가라지 가 $99만 (부/리차드박)☎718-926-2030 -------------------------------------------------------------------------------------------------------------------------------------------------------------------------------------------------------------------------------------------------------

빌딩매매 플러싱 162St Mixed Use 4 테넌트 연순소득 $116700 9년된 건물 가 $2.9M (부/리차드박)☎718-926-2030 -------------------------------------------------------------------------------------------------------------------------------------------------------------------------------------------------------------------------------------------------------

1패밀리 롱아일랜드 뉴하이드 팍 콜로니얼 단독 75*100 3BR 2.5Bath 꾸민지하 2008년 리모델 택스 $11640 가 $84만 (부/리차드박)☎718-926-2030 -------------------------------------------------------------------------------------------------------------------------------------------------------------------------------------------------------------------------------------------------------

빌딩 베이사이드 LOT 48*144 8년된 건물 / 7 테넌트 년순소득 $33만 가 $6.4M (부/리차드박)☎718-926-2030 -------------------------------------------------------------------------------------------------------------------------------------------------------------------------------------------------------------------------------------------------------

더글라스톤 lot: 80X170 대형콜로니올하우스 218만불 4BR 2.5Bath 기차역 3블럭 ☎917-939-3940(부) -----------------------------------------------------------------------------------------------------------------------------------------------------------------------------------------------------------------------------------------------------

149St 노던 1BR 스튜디오사이즈 관리비 $450 매매가 $19만 8천 사라(진선미 부) ☎646-662-1076 ☎718-737-2677 -------------------------------------------------------------------------------------------------------------------------------------------------------------------------------------------------------------------------------------------------------

플러싱 163가 45Ave lot:31×100, build:20×35 ,zone:R4 부동산세 :$6901, 매매가$85만 사라(진선미 부) ☎646-662-1076 ☎718-737-2677 -------------------------------------------------------------------------------------------------------------------------------------------------------------------------------------------------------------------------------------------------------

플러싱 콘도 노던 147St 35Ave 10층 완전 큰 2BR1.5Bath 새 마루 새 세탁시설 큰 발코니 동향 관리비 $645(힛, 물포함) 부동산세 $5700 매매가:$66만8천 사라(진선미 부) ☎646-662-1076 ☎718-737-2677


B16

Saturday, February 10, 2018

www.FindAllNY.com

콘도 구입 원함

플러싱 독채 렌트

콘도 오픈 하우스

큐가든 2BR 매매

7번 전철 도보지역 1BR 콘도 구함 주인직접 캐시로 구함 Mrs .KIM

3BR 1.5Bath 듀플렉스 기차역 가까운 노던 반블럭 지하(방 1) ,차고, 드라이브 웨이 포함. 세탁기, 백야드 사용가능 $3,350

플러싱 콘도 8월 19~ 20 일 1-3pm 35-20 147가 #10D 2BR 1.5Bath 발코니 실내, 세탁시설 완비 관리비 $645 매x매가: $668k

메인 1블럭 2층 주디어 2BR

347-319-1816

917-436-6944(부)

718-737-2677(부)

646-662-1076(부)

세탁소 급매

1 패밀리 하우스

콘도 노던 147가

오픈 하우스

2020년 대비, 맨하탄에서 규제안 받는 퀸즈 세탁공장 찾는 분. 주 6일오픈, 26년 된 가게. 가격 15만 5천불 (연매상: 26만불)

후러싱 163가 45에브뉴 lot: 31×100 build:20×35 ,zone:R4 부동산세 :$6901 매매가$85만

35Ave 147가 10층 완전 큰 2BR 1.5욕 새마루 새 세탁 시설 큰 발코니 동향 관리 비$645(힛포 물포)부동산세 $5700 매매가:$66만8천

8월 19~20일 3-5pm 45-12 163가 Zone: R4 Lot: 31×100 1패밀리 부동 산세 $6900 매매가 :$850k 지금 바로 전화주세요

718-737-2677(부)

646-477-0747(부)

917-436-6944(부)

646-662-1076 718-737-2677(부)

관리비 $746 매매가 18만불

-------------------------------------------------------------------------------------------------------------------------------------------------------------------------------------------------------------------------------------------------------

롱아일랜드 1400Sf 렌트 $3100 년매상 $40만 손발 $26 가 $18만 (부/리차드박)☎718-926-2030 -------------------------------------------------------------------------------------------------------------------------------------------------------------------------------------------------------------------------------------------------------

업스테잇뉴욕 아주 좋은 동네 렌 트 1200불 1800SF 손발50불, 손 6 발7 룸3, 부부 이사하셔서 하시 면 대박, 가격 4만5천불, 맨하탄 업타운 이스트 렌트 $2000 손발 35불 450SF, 가격 $3만5천+S디 파짓 ☎718-309-7161(부)

-------------------------------------------------------------------------------------------------------------------------------------------------------------------------------------------------------------------------------------------------------

롱아일랜드 네일 2000SF 렌트 $3900 손발 $28 년매상 $47만 가 $22만 (부/리차드박)☎718-926-2030 -------------------------------------------------------------------------------------------------------------------------------------------------------------------------------------------------------------------------------------------------------

롱아일랜드 몰 2500SF 년매상 $50만 손발 $37 렌트 $4900 알찬수익 가$22만 (부/리차드박)☎718-926-2030

-------------------------------------------------------------------------------------------------------------------------------------------------------------------------------------------------------------------------------------------------------

----2/3/18--------------------------------------------------------------------------------------------------------------------------------------------------------------------------------------------------------------------------------------2/27/18---

롱아일랜드 5M 5P 2R 렌트 $2600 손발 $29/주차좋음 사정 상 급매가 $35000+디파짓 (부/리차드박)☎718-926-2030

델리/그로서리 플러싱 좋은 위치 주매상 $1만 가$19만 (부/리차드박)☎718-926-2030

-------------------------------------------------------------------------------------------------------------------------------------------------------------------------------------------------------------------------------------------------------

-------------------------------------------------------------------------------------------------------------------------------------------------------------------------------------------------------------------------------------------------------

한식집 맨하탄 다운타운 주매상 $1만 저렴한 렌트 무 경쟁 지역. 가 $26만 (부/리차드박)☎718-926-2030

대형 체인 슈퍼마켓 브롱스 좋은동네 최고위치. 5000SF+풀 지하 년매상 $2.2M 렌트 $8000 가 $59만+스탁 (부/리차드박)☎718-926-2030

클리너 드럽스토어 맨하탄 업타운 이스트 고급동네. 연매상 $20만 렌트 $3086 6일 오픈 가$13만 (부/리차드박)☎718-926-2030 -------------------------------------------------------------------------------------------------------------------------------------------------------------------------------------------------------------------------------------------------------

-------------------------------------------------------------------------------------------------------------------------------------------------------------------------------------------------------------------------------------------------------

그로서리 맨하탄 최고위치 현주인 21년 은퇴로 인한 매매 주매상 $12000 발전 잠재력 많음 가 $16만(스탁포함) (부/리차드박)☎718-926-2030

가까운 롱아일랜드 1400Sf 렌트 $2800 년매상 $20만 가 $10만 (부/리차드박)☎718-926-2030

플러싱 좋은 위치 남향 1층 미용실 부담없는 렌트 $1100 물세 없음 리스 7년 파킹 많음 화장실 안에 ,있음 세탁기 있음 귀국관계로 매매. 매매가 $5만 ☎718-600-8571

용커스 다운타운

맨하탄 그로서리

대형 슈퍼마켓

맨하탄 한식당

1,2 패밀리 조닝

맨하탄 콘도 급매

20년 운영. 은퇴. T 7/F 4/W 1/E 2 렌트 $2400 매매 $4만 5천. 주매상 겨울 $4천, 여름 $5~6천

최고위치 다운타운 주매상 $12000 발전 가능성 많음 ! 가 $16만(스탁포함)

브롱스 5000SF+Full지하 렌트 $8000 연매상 $2.2M 발전가능성 가$59만+스탁

다운타운 바쁜위치 렌트 $6680 연매상 $50만 무경쟁지역 가$26만

베이사이드 LOT 18*100 Tax $5920 타운하우스 최고위치 가$89만

408 8th Ave Pensation 근처 FIT 와 코리아타운

917-306-9244

718-926-2030(부)

718-926-2030(부)

718-926-2030(부)

718-926-2030(부)

347-348-8790(부)

네일가게 매매

C/O 갖춘스파 매매

네일스파 매매

노던 1BR 149가

새 빌딩 매매

벼룩시장 광고

새로 레노베이션한 1,750SF P8/ M8/ 마사지 2/ 왁싱 1 주6일 오픈 매매가 13만불 (부/데보라정)

미드타운 매우 바쁜 지역 방9개 + 테이블 샤워2개 +사우나 약 2500SF 렌트 $6500 (물값포함)

퀸즈빌리지기차역앞 주매상$8500불 랜트비 $3700 10년된 새로꾸민가게 번화가지역 www.withfinder.com/사진

149가 노던 1BR (스튜디오 싸이즈) 관리비$450 매매가 $19만 8천

베이사이드 LOT 48*144 8년된 건물 7 테넌트 년순소득 $33만 가$6.4M

줄 광고 $25/한달 줄박스광고 $45/한달 (50자/ 55자 기준) 광고마감 월, 금 3시까지

917-436-6944(부)

917-678-7927(부)

646-539-9197(부)

718-926-2030(부)

718-359-0700

-----------------------------------------------------------------------------------------------------------------------------------------------------------------------------------------------------------------------------------------------------

-------------------------------------------------------------------------------------------------------------------------------------------------------------------------------------------------------------------------------------------------------

-------------------------------------------------------------------------------------------------------------------------------------------------------------------------------------------------------------------------------------------------------

일식집 플러싱 좋은위치 새시설 1200SF 렌트 $3700 가능성 가 $8만 (부/리차드박)☎718-926-2030

646-662-1076 718-737-2677(부)

-------------------------------------------------------------------------------------------------------------------------------------------------------------------------------------------------------------------------------------------------------

근처 $970,000 1.5BR living room, 2balcony


www.FindAllNY.com

구인·구직

HELP / JOB WANTED 사무직 | 전문직 | 기술직 | 요리사 | 스킨케어| 네일 마사지 | 웨이터/웨이트레스 | 세일즈 | 건축사 | 운전

물빨래 홀세일

미용사 구인

주방직원 구인

미용사 구인

뉴욕에서 가장 완벽한 시스템을 갖춘 전문공장에 서 물빨래 최상의 양질로 해드립니다. 60 ¢ / 파운드

새로 오픈한 미용실에서 미용사 구합니다. 관심 있으신 분들 연락주세요!

플러싱에 위치한 시니어데이케어 주방에서 일하실 분 구합니다. 1. 요식업에 종사 경험자 2. 합법적 신분 소지자

Wayne NJ. Spa Big Salong 미국인 살롱. 주고객 미국인 경험자 우대 영어사용자 우대

718-755-9090

347-331-6703

917-755-2834

973-617-7724

병원 전화 상담원

입주가정부 구함

마사지사 구인

노래방 도우미

한국말로 환자 전화상담. 영어 가능자. 인내심, 사람 말 잘 들어주는 분. 남녀 불 문. 먹고자고 가능하신 분 우대. 신분 확실하신 분

입주가정부 구합니다 정리 정돈 및 바느질 전문적 으로 잘하시는분, 먹고 자고 입주하실 수 있는분 (영주권 이상 소유자 분)

필라델피 마사지가게 마사지사 구합니다 좋은 대우,마사지하실 여자분구합니다

917-741-5060

917-741-5060

267-772-7227

425-218-2497

스페인어 튜터

영업사원 구인

벤 운전기사

7일 오픈 데이케어

시간은 상담 후 정해도 됩니다. 관심있으신 분은 연락부탁드립니다. seonghaprk72@gmail.com

성실하고 부지런하신분 기본급 $700+커미션 풀타임, 파트타임 환영. 연령제한 없음 통화안될시 문자남겨주세요

15인승 벤 운전가능하신분 파트타임 풀타임 가능

(뉴욕주 정부 인가) 20년 경 험을 바탕으로 시간제한 없이 사랑으로 돌보아 드립니다. 대상(1세~4세), 미술, 색종이 접기, 피아노 지도, 차량 운행 (140-02 Poplar Ave.)

646-335-3355

718-730-3433

415-802-5057

718-888-9022

회계사 구인

NJ 태권도 사범

운전자 구인

운전기사 구인

회사법인 회계를 담당하실 경험

뉴저지 태권도 사범님 구합니다.

풀타임<트럭운전>일반면허증 가능,면허증기록 좋은분,주 6 일,월3천불, 보너스3천불, 영어가능,퀸즈거주자,자차로 출퇴근하실 분, 뉴욕길 잘아시는 분, 7am-7pm

646-294-0022

립니다.​근무: 월-금 9am-6pm

(유경험자) 특별대우 해드립니다.

718-886-5041

516-594-9636

347-707-0537

다. 이력서에 연락처함께 적에주 세요​검토후 인터뷰 날짜 알려 드

파트타임, 풀타임 가능 ☎917-673-0778 -2/3/18-------------------------------------------------------------------------------------------------------------------------------------------------------------------------------------------------------------------------------------2/27/18-------

글리코영양소 영업사원 모집합 니다.

가사. 산후조리. 청소간병인

노래방 도우미 구합니다. 뉴저지 거주자 고수입 보장

플러싱에 있는 통증병원에서 중

건강과 피부건강에 관심 있으시

시면서 주 5일 근무 또는 파트타

국어 가능하고 취업에 결격사유

고 비젼을 보고 함께 비즈니스 하

임으로 일하실 분 모십니다.

없는 마사지사 구합니다. 영어 능

실 분 구함.

☎347-426-6003 10/7/17--------------------------------------------------------------------------------------------------------------------------------------------------------------------------------------------------------------------구-서비스------10/31/17

숙한 리셉셔니스트도 구함.

Dentist wanted. Diagnose and treat disease,

경험자 우대. 초보자 상담가능

injuries and malformations of

(수시접수/지원바람)

하 트럭기사 구합니다. (플러싱)

teeth and gums and related oral

◆뉴욕 네일협회

☎ 718-704-8213

structures. May treat diseases

매주 월요일 10am-12pm 교육

of nerve, pulp and other dental

◆뉴저지 교육(매일교육)

가정 도우미 소개소 ☎718-844-2244 ---1/16/18------------------------------------------------------------------------------------------------------------------------------------------------------------------------------------------------------------------------------------2/10/18-----

---------------------------------------------------------------------------------------------------------------------------------------------------------------------------------------------------------------------------------------------

tissues affecting vitality of teeth.

새로 오픈한 미용실

속성반:10am-12pm/8pm-10pm

CT state license is required.

뉴욕 베이사이드 커미션, 체어렌

-30분에 끝나는 테크닉

Mail your resume to: Meriden

트. 헤어디자이너 구합니다.

-취업과 수료증, 출장교육 가능

미용관련 스페이스 렌트

아이 돌봐드립니다.

찬사 받은 글리코영양소 판매하

소규모 맞춤형 사랑과 정성으로

일반 운전 면허. 7am-7pm.

Family Dental at 470 Lewis

돌봐드립니다. 1인 $50,

월 $3천-$6천 이상

Ave. Meriden, CT 06451.

1/10/17------------------------------------------------------------------------------------------------------------------------------------------------------------------------------------------------------------------------------------------------JE

뉴저지에서 파트타임으로 일하 실 그래픽 디자이너 구합니다

☎347-707-0537

프레쉬메도우 APT 19205 73Ave ☎917-907-2347 ☎929-293-3678 -------------------------------------------------------------------------------------------------------------------------------------------------------------------------------------------------------------------------------------------------------

-2/3/18-------------------------------------------------------------------------------------------------------------------------------------------------------------------------------------------------------------------------------2/27/18-

05/07----------------------------------------------------------------------------------------------------------------------------------------------------------------------------------NYF----------------------------op

--2/10/18------------------------------------------------------------------------------------------------------------------------------------------------------------------------------------------------------------------------------3/10/18--

뉴저지 코스모 뷰티 아카데미

면허취득과 동시에 취업 연결.

무료 상담 환영. 틀니당일 수리.

토탈 네일 피부미용 헤어

토탈 면허 / 스킨 케어 면허

실분 구합니다

한시간내에 가능.

뉴저지 최고의 한국인 선생님

NY 주 미용감독 이선주 직강

30년 경력 기공사와 의사

러시안 볼륨 속눈썹 교육

미용연구반(남자컷,매직 등),

진료과목:임플란트/일반치과/신

뉴저지 주정부 정식 인가 학교

메이크업, 영구화장, 롱레쉬

경치료/교정/사랑니 발치.

☎201-672-9400 -------------------------------------------------------------------------------------------------------------------------------------------------------------------------------------------------------------------------------------------

아스토리아 슈퍼마켓

뉴저지 렌트카 회사에서 일하실

스시 운영하실분, 유경험 스시 팟

15인승 벤 운전가능하신분

리셉셔니스트 구합니다.

파트타임 풀타임 가능

뉴저지 거주자

☎415-802-5057

La bella7 ☎201-957-3737

곽명순 치과 틀니전문 치과

-12/12/17-----------------------------------------------------------------------------------------------------------------------------------------------------------------------------------------------------------------------------------은혜판촉-------

☎917-577-8468

☎347-884-1116

뉴저지 운송회사에서 트럭운전 하

2/18/17--------------------------------------------------------------------------------------------------------------------------------------------------------------------------------------------------------------------------------------C

☎917-418-5980

타임 하실 분

신개념 속눈썹 교육과 도매판매

출퇴근 자기차 있는분 주 6일. 퀸즈. 트럭 운전.

☎718-358-1319

--2/10/18------------------------------------------------------------------------------------------------------------------------------------------------------------------------------------------------------------------------------3/10/18--

영어필수. 뉴욕길 잘 아는분

MBN '엄지의제왕'에 소개되어 실분 연락주세요.

☎718-333-0303

☎516-707-0709 -11/4/17-----------------------------------------------------------------------------------------------------------------------------------------------------------------------------------------------------------------------------구-서비스--

참신하고 책임감 강하신 50세이

☎201-898-4595

KBS '생노병사의 비밀'과

Warehouse 일하실 분 00명

부르클린 야채가게에서 운전하

[급구] 베이비시터, 가정도우미, 데이케어 센터에서 일하실 여성

(영어문의)

service

영어필수.뉴욕길 잘 아는 분 출퇴근 자기차 있는 분 주 6일.지역 퀸즈 트럭운전. 일반운전면허, 아침7시~ 저녁 7시, 월3천$-6천$이상

있는 회계직원과 초보자 구합니

B17

2018년 2월 10일 (토)

☎201-364-8989

미용라이센스 취득

저렴한 학비, 페이먼 플랜

142-10B#21 루즈벨트

431 N Midland Saddle Brook NJ

대규모 최신 시설.

7번종점3분

한국어 문의 ☎201-803-9311

☎718-359-2519

티파니 미용학교

영어문의 ☎201-797-8800

☎ 917-406-8897

05/07---------------------------------------------------------------------------------------------------------------------------------------------------------------------------------NYF-----------------------------op

05/07-------------------------------------------------------------------------------------------------------------------------------------------------------------------------------NYF-------------------------------op

6/24/17------------------------------------------------------------------------------------------------------------------------------------------------------------------------------------------------------------------------------------------------12/20/14---------------------------------------------------------------------------------------------------------------------------------------------------------------------------------------------------------------------------------------2/3/18-------------------------------------------------------------------------------------------------------------------------------------------------------------------------------------------------------------------------------------2/27/18-------

-----------------------------------------------------------------------------------------------------------------------------------------------------------------------------------------------------------------------


B18

Saturday, February 10, 2018

www.FindAllNY.com

송동호 종합로펌 이민법 스페셜 법률 칼럼 시리즈 [H-1B 칼럼 시리즈] 전공별 H-1B 성공 전략 | 건축 (Architecture) 관련 전공자

안녕하세요, 송동호 종합로펌입니 다. 미국에는 세계적으로 유명한 건 축회사들이 많습니다. Architect Magazine에서 뽑은 2017년 최고의 건축회사 리스트를 살펴보면1, 2위 를 한 Skidmore, Owing & Merrill, ZGF Architects뿐만 아니라 많은 유 명 건축 회사들의 대부분이 미국에 근 거지를 두고 있거나 주요 지사를 가 지고 있습니다. 그 만큼 미국 건축시 장은 건축학도라면 한 번 쯤 도전하

고 싶은 곳입니다. 미국 내 대학교에 서 건축학을 공부하고 있는 많은 한국 인 유학생들도 비슷한 이유로 미국이 라는 나라를 선택했을 것이라고 생각 됩니다. 건축학과를 졸업하고 미국에 서 실무 경험을 쌓기 위해서 H-1B 비 이민 취업 비자는 반드시 고려해봐야 하는 비자들 중 하나입니다. 건축학과를 갓 졸업하고 건축회사 에서 H-1B스폰서의 기회를 갖게 되 었더라도 건축사(Architecture)로

H-1B를 신청할 수 있는 경우는 매 우 드뭅니다. 건축사로서 라이센스를 따기 위해서는 일정 기간 실무 경력 이 필요하기 때문입니다. 따라서, 이 런 경우 가장 많이 선택하게 되는 보 직은 하는 일에 따라 건축 디자이너 (Architectural Designer, Design Architect) 혹은 건축 프로젝트 매니 저(Architectural manager)입니다. 건축학 관련 보직은 일반적으로 학사 이상의 학력이 필요한 것으로 판단하 고 있으며 해외에서의 건축학 학사 학 위도 학위 평가를 통해 인정해주고 있 습니다. 다만 최근 이민국 경향이 건축관련 보직 H-1B 신청에 있어서도 해당 포 지션이 H-1B 전문직종(Specialty Occupation)에 해당하는지에 대해 추가서류요청서(RFE)발급을 증가 시키는 추세입니다. 이에 따라 해당 포지션의 전문성과 난이도에 대해 H-1B 준비단계에서부터 꼼꼼히 준 비할 필요가 있습니다. 또한, 건축학과를 졸업하여 건축 회 사에 취업한 경우, 설사 H-1B 쿼터

추첨에서 떨어지더라도 다른 비자를 고려해볼 수 있습니다. 대표적으로 고 민해 볼 수 있는 비자는 예술가 비자 로 잘 알려져 있는 O비자 입니다. ‘ 건축가가 어떻게 예술가?’라고 생각 하시는 분들이 많겠지만, 건축가와 달 리 건축 디자이너는 예술가로서 보직 이 인정됩니다. 또한 이민국은 대형 건축 프로젝트 의 특성을 잘 이해하고 있어 대부분의 프로젝트가 개인보다 회사를 중심으 로 진행되는 것을 알고 있습니다. 따 라서, 이민국은 어떤 프로젝트로 회사 가 상을 받은 경우에도 프로젝트에서 개인의 중요한 역할만 확인된다면 개 인의 수상으로 인정해주는 편입니다. 따라서, 자신이 O비자가 되는지 여부 를 확인하고 H-1B와 O-1을 함께 준 비하여 H-1B 추첨 탈락에 대비하실 것을 권해드립니다. 일하고자 하는 건축회사의 해외 지 사에서 일한 경험이 있다면 L-1(주재 원 비자)이 가능한 케이스들도 간혹 보아왔습니다. 혹은 일하고자 하는 건 축회사가 외국인 건축가 E비자로 설

립한 회사라면 회사 직원으로 E투자 비자를 받아 일할 수 있는 가능성도 있습니다. 따라서, H-1B외에 다른 비 자를 고려해야 하는 상황이 된다면 개 개인의 프로젝트나 이전 경력, 회사의 특이점에 따라 자신에게 유리한 비자 를 고려해볼 수 있겠습니다. 세계적인 건축가가 되는 꿈을 꾸 고 계시는 많은 유학생 여러분, 이 번 H-1B신청에 있어 좋은 결과 있 으시기를 바랍니다. 본 칼럼관련 추가 문의사항이 있으시면 mail@ songlawfirm.com으로 연락 주시기 바랍니다. ** 송동호 종합로펌 이민팀은 취업 에 매진한 여러분의 이민법 파트너 로서, 전공별 성공전략을 토대로 한 “H-1B 법률 칼럼 시리즈” 준비하였 습니다. 본 칼럼은 영상과 카드뉴스로 도 확인 가능합니다. 유튜브, 네이버, 구글에서 “H-1B 법률 칼럼”이란 검 색어를 통해 영상과 카드뉴스로도 확 인해 보세요. 지피지기 백전불태! 송 동호 종합로펌 이민팀과 H-1B준비 에 만전을 기하시기 바랍니다.


www.FindAllNY.com

2018년 2월 10일 (토)

9/23/17-------------------------6M----------------NY--------------------------------------------------------------------------------------------------------------------------------------------------------3/27/18-------

초보자 / 중간 기술자 구함 와잇스톤 지역 ☎718-445-6774 ☎516-660-7390

에프터스쿨 파트타임 선생님 구 합니다. 일하실시간 :2pm-6pm

해바라기 건축 전기 목수 중축 보

eychang2002@yahoo.com

수 등 상/하수도 가스 공사 화장

☎718-353-1805 <7일 오픈 데이케어> (뉴욕주 정부 인가) 20년 경험을

용품(판매및구입)가게, 주택(전 기,플러밍)모든 공사. 211-63 46th Ave Bayside 11362 ☎ 718-986-2442

컴퓨터 출장 수리 & 교육 업그레 이드 컴퓨터에 관한 모든 문제 해 결 픽업 출장수리 B&B 컴퓨터 ☎718-279-2685 -----------------------------------------------------------------------------------------------------------------------------------------------------------------------------------------------------------------------

100%만족 보장 판매 수리 웹사 이트 전문 모든 컴퓨터 문제 해결

----------------------------------------------------------------------------------------------------------------------------------------------------------------------------------------------------------------------

닥트 히팅 스프링 쿨러 플러밍의

깨진 스크린 수리 휴대폰까지 HD

모든 설치

초고화질 CCTV 설치

☎718-644-5071

☎718-762-6000

-----------------------------------------------------------------------------------------------------------------------------------------------------------------------------------------------------------------------

바탕으로 시간제한 없이 사랑으 로 돌보아 드립니다.

풍부한 경험으로 성심껏 완벽하

대상(1세~4세), 미술, 종이 접기,

게 도와드립니다. 화장실 욕조 주

피아노 지도, 차량 운행

방 타일 마루 페인트 네일 세탁소

(140-02 Poplar Ave.)

델리 식당등 모든업소

☎718-888-9022

설치, 수리, 전문업체. 네일가게

실 보일러 세면대 욕실 부엌 싱크

김목수 (심양 건축)

05/1/14---------------------------------------------------------------------------------------------------------------------------------------------------------------------------------------------------------------------------------------

다량보유(6개월-1년 보증)

7/20/12----------------------------------------------------------------------------------------------------------------------------------------------------------------------------------------------------------------O

Send resume to

10/31/17----------------------------------------------------------------------------------------------------------------------------------------------------------------------------------------------------------------------구-서비스----------

-----------------------------------------------------------------------------------------------------------------------------------------------------------------------------------------------------------------------

중고 페티큐어 판매(구입)

[보험소지] ☎646-243-2202

-----------------------------------------------------------------------------------------------------------------------------------------------------------------------------------------------------------------------

의자 천가리 전문업체 네일 의자, 페디케어 의자, 식탁 의자, 미용실 의자, 마사지 침대, 부박이소파, 쿠션 주문제작 네일가구 수리해드립니다. 저렴 한 비용으로 수리해드립니다.

-----------------------------------------------------------------------------------------------------------------------------------------------------------------------------------------------------------------------

☎347-786-0111 스페니쉬 튜터(Spanish Tutor)

☎646-581-1200

구합니다.

Will 번역 통역 이민 서류, 법률 서류, 법정 통역, 비즈니스 통역, 논문, 각종 서류 모든 것 (영어 그룹 지도) leenewyork@hotmail.com

10/7/17-----------------------------------------------------------------------------------------------------------------------------------------------------------------------------------------------------------6months

시간은 상담 후 정할수있습니다. 관심있으신분 연락주세요.

정크 익스프레스 (뉴욕시 정식 허

seonghaprk72@gmail.com

가 전문 업체) 각종 공사후 쓰레

☎646-335-3355

기, 고철수거. 델리, 세탁소 라운

12/24/16------------------------------------------------------------------------------------------------------------------------------------------------------------------------------------------------------------------------------------------------

드리멧 철거. 지하실 청소. 네일 가게, 페디큐어, 콘크리트, 백야 드 쓰레기 청소. 정크차 무료 픽 업. 무료상담,무료견적 ☎718-415-2004

세탁기/드라이어 설치 수리 판매 가정용, 상업용-Wascomat

☎646-640-6204 ☎917-849-9266 11/11/14---------------------4m-------------NY--------------------------------------------------------------------------------------------------------------------------------------------------------------------11/10/1

50파운드 7대, 35파운드 14대 28파운드 14대, 18파운드 7대 Dryer 2층 15대 LG 드럼용 세탁 기/드라이어 ☎201-618-8497 ☎201-313-1686

B19


B20

Saturday, February 10, 2018

www.FindAllNY.com


www.FindAllNY.com

2018년 2월 10일 (토)

B21


B22

Saturday, February 10, 2018

www.FindAllNY.com


www.FindAllNY.com

2018년 2월 10일 (토)

B23


B24

Saturday, February 10, 2018

www.FindAllNY.com


www.FindAllNY.com

다중 보험 계약으로 크게 절약하기

2018년 2월 10일 (토)

B25

오늘 전화하셔서 절약하세요!

절약 방법 중 하나는 주택, 생명, 사업 보험에 함께 가입하는 것입니다. 보장 옵션을 현명하게 선택하고 할인받으세요.

929.362.2436 Wonil (Dennis) Bae 귀하의지역보험대리인

19506 47TH AVE FLUSHING, NY 11358 WBAE@FARMERSAGENT.COM 제한 사항이 적용됩니다. 할인 혜택은 경우에 따라 다를 수 있습니다. 모든 주에서 이용이 가능한 것은 아닙니다. 자세한 사항은 보험 대리인에게 확인하시기 바랍니다. 보험 인수자: Farmers Insurance Exchange 및 기타 보험 계열사. 전체 회사 목록은 farmers.com 웹 사이트에 있습니다. 보험자에 따라 일부 주에서는 보험 제공이 허가되지 않을 수 있습니다. 모든 주에서 커버리지를 이용할 수 있는 것은 아닙니다. Farmers New World Life Insurance Company(3003 77th Ave SE, Mercer Island, WA 98040) 발행 생명 보험,


B26

Saturday, February 10, 2018

www.FindAllNY.com


www.FindAllNY.com

2018년 2월 10일 (토)

교육·전문지도

B27

EDUCATION

CDL 라이센스 취득 | 통역/번역 | 기술지도 마사지 면허 | 미용 자격증 | 여름학교 과외

네가 알지 못하는 크고 비밀한 일을 네게 보이리라 [ 제 3장 삶은 끝없는 도전 ] 3. 환경업체로 돌아오다 내가 얻은 결론은 “환경보전법상 오 염 방지 시설을 한다면, 농지법은 하 위법이므로 상위법인 국토이용관리 법에 의거 농지법에서 규제하더라도 설치해도 된다”였다. 그래서 내용을 요약해서 법원의 판 결문같이 만들어 환경부와 광주시청 에 보내 허가를 요청했다. 환경부에 서 반기를 들었다. 역시 농지법 몇 조 몇 항을 들어 허가할 수 없다는 것이 었다. 그렇게 자세히 설명해서 보냈 는데 제대로 보지도 않은 것이었다. 네까짓 게 뭘 아느냐고 무시했다.

나는 바로 과천에 있는 환경부로 달 려갔다. 장관과 대면을 신청했다. 법 리 논쟁으로 진검 승부를 펼치겠다고 했다. 이런 무능한 해당 사무관에게 책임을 묻는 조건을 걸었다. 그랬더 니 허가 불가였던 도장 설비 설치는 가능하다고 3일도 안 되어 바뀌었다. 그렇게 해서 나는 하나님 은혜로 ○○전기의 도장 시설을 공해 방지 시설과 함께 시공을 하고 허가를 마 쳐 사용할 수 있도록 해줄 수 있었다. 4. 제천에서의 사고 지금도 생각하면 오금이 저린 사건 이었다. 7월 중순 어머니 생신을 맞 이해서 시골을 다니러갔다. 그 당시

두 살 정도 되는 아들과 아내와 함께 내가 차를 운전해서 석포로 갔다 오 는 길이었다. 아내는 차만 타면 멀미를 잘해서 주 로 앞에 탔었는데 아이가 있어 뒤로 타야 함에도 불구하고 멀미 때문에 아이를 안고 앞자리에 앉았다. 그날 형수님도 뒷자리에 타고 같이 서울로 가고 있었다. 태백에서 영월까지 오는 도로는 꼬 불꼬불 해서 차가 속도를 낼 수 없지 만 영월에서 제천에 접어들면 시원하 게 뚫린 직선 도로를 만나게 된다. 속 도를 높여 달리고 있는데 앞쪽에 왼 쪽 도로변으로 노인 한 사람이 자전 거를 타고 가고 있었다. 20미터 정도 가까워지고 있는데 웬

일인지 자전거가 내 차가 가는 앞으 로 넘어 오고 있었다. 난 이미 시속 80 킬로미터로 달리고 있어서 경적을 울 렸다. 대개 그러면 비켜가는데 이 자 전거는 계속 앞으로 들어왔다. “어, 저 사람이 왜 이러지! 안 되겠어 받을 것 같애! 애 꼭잡아!”라고 소리 지르면서 브레이크를 밟았다. [다음호에 계속] 저자 <노권호> : 뉴욕에서 부동산 과 융자 및 재정상담가로 활동 중. 미국 최초로 스팀 살균세차 기술을 개발 완료, 미전역 세차장에 공급을 준비중인 이지스팀의 부사장. 연락처: 201-675-1951 이메일: syatt2020@gmail.com

<판매처> 반디서점: 718) 353-4411 할렐루야 서점: 718) 762-0011 NJ 고려서적: 201) 944-8740 NJ 한양서점: 201) 947-1717


B28

Saturday, February 10, 2018

www.FindAllNY.com

CCB 손경탁 원장의 <금주의 영어회화> 고객이 Supervisor(실장)로 승진했다고 축하해 달라고 한다 "정말이세요? 야, 축하합니다. 당신은 이제 책임이 무거워지셨네요" Are you really? Oh, boy. Congratulations. Well, you are in the responsible position now. ◆Usages 1. 당신은 회사에서 승진해셨다면서요. 축하해요! I've heard that you got promotion. Congratulations! 2. 난 그런 책임적인 위치에 오르고 싶지 않습니다. I don't want to be in that responsible position.

고객과 친해져서 서로 오고가며 자기나라 음식을 대접할 때 "야, 맛있는 음식으로 한상 잘 차려 놓으셨네. 야, 오늘은 내가 생일을 맞이한 기분인걸요" Oh, boy. What a beautiful table. I feel like it's my birthday today. ◆Usages 1. 음식이 아주 맛있어 보이네요. 하지만 의사가 나 보고 5 파운드나 줄이라고 하니 어떻게 하나? The food looks so delicious to me. You know what? My doctor wants me to lose 5 pounds. 2. 그렇지만 그까짓것 일단 먹고보자. 사람이 한번 죽지 두번 죽나. However, I can't miss this delicious food. Well, you only live once.

201-567-3879

32 Piermont Rd. Ste7 Cresskill NJ 07626


www.FindAllNY.com

2018년 2월 10일 (토)

프랜시스 영재스쿨

영어 지도

영어책 클럽

명품 가죽백 수리

주정부 정식인가된 유치원으로 무료 UPK와 어릴때 부터 체계적인 교육으로 2세부터 방과후학교까지 정성껏 돌봐 드립니다.

영어 실력이 부족한 초중고생, 한국에서 갓이민온학생, 1:1 개인지도 해드립니다.

작가 최복림씨가 운영하는 영어북클럽, 매달첫수요일 (저녁ㅇ-8) 그달의 영어소설을 읽고 토론 (46-20 Prarson Blvd)

주문 생산 핸드백 교실 603B Brord Ave. Ridgefield NJ07650

718-578-7828

718-279-2685

718-279-2685

917-355-6151

왕초보 영어 특별지도 월 $99부

예성 데이케어 1-4세, 제한된 인

신개념 속눈썹 교육과 도매판매

터 그룹지도, 시민권반, 회화반,

원수, 건강 식단, 1:1 교육방식,

◆뉴욕 네일협회-매주 월요일

쓰고 읽기반, 수준별 개인지도

풀타임가능, 차량운행 가능, 뉴욕

10am-12pm 교육 ◆뉴저지 교

B29

10/25/16-------------------------------------------------------------------------------------------------------------------------------------------------------------------------------------------------------------------------------11/24//17

수학 전문지도(한국어/영어) 초중고 지도가능, 플러싱-베이사

☎ 718-915-2000 --------------------------------------------------------------------------------------------------------------------------------------------------------------------------------------------------------------------------------------------

이드까지, 스케줄 조정가능

주 그룹 홈 데이케어 라이센스, 사

미용성형 기술지도

육(매일교육) 속성만: 10am-

랑과 정성으로 보살펴 드립니다.

◆실 리프팅(동안만들기)

12pm, 8pm-10pm / 30분에 끝나

(45-34Utopia Pkwy)

한국·중국 최고기법

는 테크닉 / 1일 교육후 영업가능

◆매선(바이오라인) 몸치료

/ 취업과 수료증, 출장교육 가능

☎718-687-3533

(남자 선생님)

6/11/16----------------------------------------------------------------------------------------------------------------------------------------------------------------------------------------------------------------------------------9/10/16

☎315-741-9494

La bella7 ☎201-957-3737

◆복음선교 기술반

프랜시스 영재스쿨

(매선 치료/미용/용접/철구조물)

영어 실력이 부족한 초/중고생,

주정부 정식인가된 유치원으로

개인/그룹지도

한국에서 갓 유학 또는 이민 온 학

무료 UPK와 어릴때 부터 체계적

생들 일대일 집중지도해 드립니

인 교육으로 2세부터 방과후학교

경순피아노 부담없는 레슨비

다.

까지 정성껏 돌봐 드립니다.

즐겁고 재밌게, 국내외 콩쿨입상

뉴저지 코스모 뷰티 아카데미

구반(남자컷,매직 등), 메이크업,

자 배출, 음악회 수시게최

Cosmo beauty Academy.

영구화장, 롱레쉬. 저렴한 학비,

시간 : 8AM~10PM 장소:플러싱

토탈 네일 피부미용 헤어.

페이먼 플랜. 대규모 최신 시설.

교실, 와잇스톤 교실

뉴저지 최고의 한국인 선생님.

7/4/17---------------------------------------------------------------------------------------------------------------------------------------------------------------------------------------------------------------------------------7/29/17

☎ 718-279-2685

3/1/15------------------------------------------------------------------------------------------------------------------------------------------------------------------------------------------------------------------------------------------

☎718-578-7828 9/23/17--------------------------------------------------------------------------------------------------------------------------------------------------------------------------------------------------------------구부-서비스------------------

<7일오픈 데이케어>

☎646-318-6784 -2/10/18--------------------------------------------------------------------------------------------------------------------------------------------------------------------------------------------------------------------------------3/10/18-

뉴욕주 정부 인가. 20년 경험을

☎347-577-2332

러시안 볼륨 속눈썹 교육.

[영어 북클럽] 최복림 작가 운영

바탕으로 시간제한 없이 사랑으

☎929-319-0512

뉴저지 주정부 정식 인가 학교.

그 달의 영어 소설을 읽고 토론

로 돌보아 드립니다.

현재 8-10 회원이 출석

대상(1세~4세), 미술, 색종이 접

섹소폰, 트럼펫, 플룻, 레슨. 초보

431 N Midland Saddle Brook NJ

회비 월 $10 매 달 첫 수요일

기, 지도, 차량 운행

부터 리즈마6. 어른도 지도함, 작

한국어☎201-803-9311

저녁 6-8 시

(140-02 Poplar Ave.)

은 파티 출장 연주. 중고 빈티지

영어☎201-797-8800

☎917-574-9676

☎ 718-888-9022 5/1/14-----------------------------------------------------------------------------------------------------------------------------------------------------------------------------------------------------------------------------------6/31/16

6/28/16----------------------------------------------------------------------------------------------------------------------------------------------------------------------------------------------------------------------------------7/27/16

7/4/17------------------------------------------------------------------------------------------------------------------------------------------------------------------------------------------------------------------------------------5/8/18

악기 판매

☎ 917-678-2957

6/4/16----------------------------------------------------------------------------------------------------------------------------------------------------------------------------------------------------------------------------------11/3/16

미용라이센스 취득.

05/07--------------------------------------------------------------------------------------------------------------------------------------------------------------------------------------------------------NYF----------------------------op

수강생 모집 양초 만들기 천연 화장품 만들기 핸드메이드비누 만들기 비즈, 원석으로 쥬얼리 만들기 기초반(취미반), 중급반 고급반(부업, 창업) 초,중,고 학생 , 주부, 직장인 모두 환영(문자 메세지 바람)

05/07--------------------------------------------------------------------------------------------------------------------------------------------------------------------------------------------------------NYF----------------------------op

☎718-213-1820

면허취득과 동시에 취업 연결.

052317-------------------------------------------------------------------------------------------------------------------------------------------------------------------------------------------------------------------------------------GU

토탈 면허 / 스킨 케어 면허. NY 주 미용감독 이선주 직강. 미용연

티파니 미용학교 ☎ 917-406-8897

Will 번역 통역 이민 서류, 법률 서류, 법정 통역, 비즈니스 통역, 논문, 중국어 통 역, 번역 각종 서류 모든 것

05/07--------------------------------------------------------------------------------------------------------------------------------------------------------------------------------------------------------NYF----------------------------

(영어 그룹 지도) op

leenewyork@hotmail.com ☎ 646-640-6204 명품 가죽백 수리, 주문, 생산.

☎ 917-849-9266 1/5/16------------------------------------------------------------------------------------------------------------------------------------------------------------------------------------------------------------------------------------2/4/16

핸드백 교실 603B Broad Ave. Ridgefield NJ ☎917-355-6151


B30

Saturday, February 10, 2018

www.FindAllNY.com


www.FindAllNY.com

2018년 2월 10일 (토)

B31

인간은 뇌의 일부만 사용한다? 뇌에 대한 잘못된 상식들… 인터넷의 발달로 우리는 많은 정보 를 얻을 수 있다. 하지만 잘못된 정보 가 마치 사실인것 처럼 퍼져나가기도 한다. 인터넷 속 다양한 정보들 가운 데 뇌에 관한 잘못된 정보들도 마치 사실처럼 퍼진 것들이 상당 수 있다. 뇌에 대해 잘못 알려진 상식들을 바 로잡잡아 보자. ▶인간은 뇌의 극히 일부만 사용한다 1908년 미국의 유명 심리학자 윌리 엄 제임스가 “우리는 가용 가능한 정 신적, 신체적 자원의 극히 일부만 사 용하고 있습니다.”라고 한 주장이 한 언론인에 의해 “대다수 사람들은 정 신 능력의 10%만 개발되어 있다”는 말로 왜곡되어 지금까지 퍼진 것이다. 하지만 실제로 뇌를 스캔해 보면 인 간은 뇌의 모든 부분을 사용하고 있다 고 한다. 물론 동시에 모든 부분을 활 성화하는 건 아니다. ▶클래식 음악을 아기에게 들려주면 뇌 발달에 도움이 된다 1998년 미국 조지아주 주 정부는 신 생아를 둔 가정에 클래식 음악 CD를 보급하며 “부모님과 아기 모두가 이 음악을 즐겼으면 합니다. 그래서 아 기가 똑똑하게 삶을 출발하게 되기를 원합니다”라는 메시지를 함께 전달했 다. 이는 모차르트 효과에 대한 믿음

에서 비롯된 것이지만 1999년 하버드 대학 연구팀의 연구 결과 모차르트 효 과는 실재하지 않는다고 한다. ▶혼수상태는 수면 상태와 같다 이는 영화나 드라마가 심어준 잘못 된 인식으로, 많은 사람들이 오랫동안 혼수상태에 빠져 있다가 아무 일 없었 다는 듯 깨어나는 장면을 보고 혼수상 태가 수면 상태와 같다고 생각한다고 한다. 하지만 현실의 혼수상태는 장애 를 동반하는 사례가 많고, 깨어난 뒤 에는 재활 훈련을 해야 한다. 그 이유 는 정상인의 경우 깨어있을 때와 수면 중에도 항상 활발히 활동하는 뇌 영역 이 있는 반면 혼수상태 환자들은 거의 그렇지 않기 때문이라고 한다. ▶성인이 되면 더 이상 새로운 뇌세포 가 만들어지지 않는다 성인이 되면 새로운 뇌세포가 만들 어지지 않는다는 말이 있는데 역시나 사실이 아니다. 2014년 스웨덴 카롤린 스카연구소 팀이 DNA 속 탄소 -14 의 흔적을 추적, 인지와 운동 제어에 관여하는 선조체 영역에서 평생 뉴런 이 만들어지고 있다는 사실을 입증했 다. ▶남성과 여성의 뇌 발달에는 차이 가 있다 전체적인 면에서 볼 때 다 차이가 나

는 것이 아니라 작지만 분명한 차이가 있는 것이다. 기억에 관여하는 해마는 여성, 감정을 관장하는 편도체는 남성 의 뇌가 일반적으로 더 크다. 남성이 수학과 과학에 강하고 여성이 공감능 력 발달에 적합하다고 알려진 속설과 는 정 반대인 것이다. ▶교수법과 학습법이 일치해야 학습 효과가 극대화된다 2006년 캘리포니아대학 샌타바버라 캠퍼스 심리학 연구팀이 학생들을 대 상으로 실험한 결과 자신이 선호하는 스타일로 수업을 받았을 때와 그렇지 않았을 때의 시험성적 차이는 발견되 지 않았다고 한다. 교육 효과를 높일 수 있는 방법은 시각과 청각 중심의 학습법이 아닌 예습과 복습, 시험, 적 당한 휴식에서 찾아야 한다. 술을 마시면 뇌세포가 죽는다 술을 마시면 머리가 멍해지는 느낌 이 들고, 만취하는 경우에는 필름도 끊기기 때문에 술을 마시면 뇌세포 가 죽는다고 알고 있는 사람들이 많 다. 하지만 이러한 현상은 뇌세포가 죽어서 그런 것이 아니다. 덴마크 바 르톨린 연구소 과학자들이 알코올 중 독자와 정상인의 뇌를 부검한 결과 뉴 런의 총 개수가 별반 다르지 않았다 고 한다.

▶사람은 좌뇌형ㆍ우뇌형 인간으로 나뉜다 실제로 좌뇌와 우뇌 가운데 한 쪽이 개인의 인성이나 개성에 지배적 영향 을 미친다는 과학적 증거는 없다. 오 히려 그것을 반증하는 결과들이 많이 있다고 한다. ▶초감각적 지각은 과학적으로 입증 됐다 초감각적 지각(ESP)가 과학적으로

입증됐다고 믿는 이들이 많다. 이에 대한 실험은 1930년대부터 시작되었 지만 ESP의 존재가 입증된 적은 없 다. 이런 미신이 퍼진 데에는 미국 CIA가 한 몫 했다. 냉전기간 중 이른 바 초능력자 스파이 팀을 운용했기 때 문이다. 하지만 이 팀은 1995년 해산 되었는데, ESP는 아무것도 아니라는 결론에 도달했기 때문이라고 한다.

유학생을 위한 특별 이벤트 유학생들을 위한 최상의 선택

스 케 줄

Best Choice for International Student

저렴한 학비

월요일-목요일/토요일

Affordable Tuition

오전/오후 /저녁

시 간 자 율 선 택

편리한 교통

실력있는 강의진!

Easy Transportation

Professional Teachers

소그룹 강의

Small Group Teaching

F-1학생,전학,신분변경 www.studyoncampus.com

Tel:

(718) 303-0985

Fax: (917) 563-5707 Email: infoflushing@studyoncampus.com

132-71 Maple Ave. Suite 1A, Flushing NY 11355 www.facebook.com/campuseducation

campus_education


B32

Saturday, February 10, 2018

물품매매

www.FindAllNY.com

BUY&SELL 귀금속 | 상업용품 | 무빙세일 | 물건수리 | 악기

탈모예방부터 간건강까지 챙겨주는 '호박씨' 호박의 씨앗인 호박씨는 영양소가 풍부 해 오랜 옛날부터 세계 각지에서 즐겨 먹 었다고 한다. 호박씨를 섭취하는 방법은 매우 다양하 지만 우유와 함께 섭취하면 더욱 좋다고 한다. 그렇다면 몸에도 좋고 맛도 좋은 호박씨에는 어떤 효능들이 있는지 에 대 해 자세히 알아보자. 탈모에 좋은 음식을 찾고 있다면 호박 씨를 추천한다. 호박씨에는 탈모와 관련 된 주요 호르몬인 테스토스테론의 생산 과 관련 있는 효소의 활동을 억제하는 효 능이 있어 탈모에 효과가 있다고 한다. 탈모 예방을 위한다면 오랜 기간 꾸준히 섭취하는 것이 좋다. 호박씨에는 불포화지방산과 레시틴 성 분이 함유되어 있는데, 이 두 성분은 두 뇌발달과 치매 예방에 효과가 있다. 또 한 글루타민산이라는 단백질도 함유되 어 있는데, 뇌의 스트레스와 과민성 불안 등의 증상을 완화시키는 GABA의 합성 을 촉진한다고 한다. 호박씨는 견과류 중에서도 아연이 가장 많이 함유되어 있는 견과류로 꼽힌다. 아 연은 인체에 인슐린 조절을 도와 혈당관 리 및 당뇨 예방에 효과가 있다. 평소 당 뇨로 인해 식습관에 신경을 쓰고 있다면 매일 호박씨를 섭취해 보도록 하자. 심혈관 질환 개선에도 호박씨가 도움이 될 수 있다. 호박씨에 함유되어있는 불포 화지방산은 혈행 개선에 도움이 되며, 마 그네슘은 혈관의 평활근을 튼튼하게 만 들어 준다. 또한 칼슘은 혈압을 올리는 나트륨의 배출을 유도해 콜레스테롤 수 치 개선에도 효능이 있다고 한다. 남성들은 주목하자. 남성들에게 좋은

의자 천갈이 전문

중고 네일 용품

네일의자 페디케어체어 식탁의자 미용실의자 마사지 스파 매매 맛사지 침대 부박이소파 "쿠션 주문제작" "천가리전문업체" 네일가구 수리해드립니다. 저렴한 비용으로 수리해드림

중고 페디큐어판매 및 구입 다량보유(6개월1년 보증) 마사지 스파 매매 설치,수리,전문업체 네일가게용품 (판매및구입) 가게,주택 (전기,플러밍 모든 공사) 211-63 46th Ave Bayside 11362

347-786-0111 646-581-1200

음식 하면 마늘이나 부추, 장어를 떠올리 기 쉬운데 호박씨도 많은 도움이 된다. 정확히는 호박씨의 풍부한 셀레늄과 아 연이 남성호르몬 분비에 도움을 준다. 또 한 호박씨에 함유되어 있는 델타-7 스테 롤 성분은 전립선 비대증 개선에 효과가 있으며, 방광염과 같은 질환 예방에도 도 움이 된다고 한다. 호박씨에는 천연 에스트로겐 성분인 리 그난과 불포화지방산이 함유되어 있는 데, 이 성분들은 유방암과 위암, 폐암 대 장암 등의 발병 위험을 감소시키는 효과 가 있으며, 호박씨의 쿠쿠르비나신E 성 분은 항암, 항염증에 효과가 있다고 한 다. 호박씨에 풍부하게 함유되어 있는 불포 화지방산은 성장기 아이들 발달에 도움 이 되며, 임산부에게도 도움이 된다고 한 다. 또한 불포화지방산의 종류인 DHA 와 EPA가 두뇌발달 및 기억력과 학습 능력을 증진시키는 효과도 있다고 한다. 불면증으로 고생하고 있다면 매일 잠자 리에 들기 전 호박씨를 섭취해 보도록 하 자. 호박씨에는 인체에서 세로토닌으로

전환되어 멜라토닌으로 전환되는 아미 노산의 일종인 트립토판이 풍부하게 함 유되어 있어 취침 전 소량의 탄수화물과 함께 호박씨를 섭취해 주면 숙면에 도움 이 된다고 한다. 이 밖에도 트립토판은 우울증 완화에도 효과가 있다고 한다. 평소 피부 관리에 신경을 쓰는 사람들 이라면 역시나 호박씨를 가까이 하는 것 이 좋다. 호박씨에 함유되어 있는 무기질 과 비타민은 피부 비용과 노화 예방에 도 움이 된다고 한다. 호박씨를 섭취하는 것 도 좋고, 호박씨로 천연 팩을 만들어 활 용하는 것도 좋다. 술을 마실 때 조금이나마 간에 도움이 되는 안주를 찾는다면 호박씨를 추천한 다. 호박씨에는 필수아미노산인 메티오 닌이 다량으로 함유되어 있어 섭취 시 간 의 작용을 돕는 역할을 한다고 한다. 꼭 술을 마실 때가 아니더라도 평소 피로를 많이 탄다면 호박씨를 간식으로 섭취하 는 것이 좋다. 참고로 호박씨를 날것으로 먹을 때는 겉의 얇은 껍질을 벗겨 먹으면 되고, 말리거나 기름에 볶으면 겉껍질이 잘 벗겨져 더욱 먹기 편하다.

718-986-2442

유로피안 그림

LG 세탁기 수리

각종 유로피안 그림들

세탁기 건조기 냉장고 저렴한 가격에 판매 수리 설치 LG·삼성·whirlpool 등 다 수 브랜드 가능

(유화) 판매 표구도 해드립니다

347-909-1969

201-310-3391

삼성김치 냉장고

세탁기 / 건조기

미주총판 및 에프터 서비스, 최고의 성능, 디자인의 삼성김치냉장고 판매 및 에프터 서비스를 책임집니다

라운드리하실 분 파격세일, 가정용 세탁기/ 드라이어 보유 모든 상업용 가정용 전문, 세탁기계 수리 설치 관리

844-651-8282

201-618-8497

돌침대 무료

싱글매트 구함

2인용 돌침대 무료로 드립니다

가볍고 온열 되는 싱글 사이즈 매트 구합니다. (플러싱 주변 지역 픽업 가능한 곳)

상태좋음

718-886-5040

201-688-7877


www.FindAllNY.com

도자기, 꽃병

구두수선 기계

도자기, 꽃병 동양란/ 일반 화초/ 분재 분 (pots) 한국산 저렴하게 팝니다. (동양란도 있습니다)

구두 수선 기계 장비 키복사 기계 판매합니다

646-460-6515

914-960-1254

2018년 2월 10일 (토)

밥솥(가정용)구함 상태 양호한 가정용 압력 밥솥 구합니다. 쿠쿠 압력밥솥 좋은 가격에 주실 분

냉장고 구함 2도어&아이스 메이커 기능 있는 냉장고를 구합니다

B33

김치냉장고 구함

네일기계 구함

상태 좋은 김치 냉장고 구합니다.

네일 손톱가는 기계 좋은 가격에 주실 분

좋은 가격에 주실 분

연락 부탁드립니다

516-399-1882

347-535-3318

718-504-0548

718-751-9381

피아노 조율

표고 농사

줄기세포 판매

벼룩시장 광고

외국인 음악가도 인정

조율사 제임스 박

비닐하우스 공간 사용하세요. 씨앗도 무료 유기농 농사 가르쳐드립니다.

917-385-8239

201-757-1835

4/1/15---------------------------------------------------------------------------------------------------------------------------------------------------------------------------------------------------------------------------------03/31/16

중고 페티큐어 판매(구입) 다량 보유(6개월-1년 보증)설치, 수 리 전문업체. 네일 가게 용품 (판 매 및 구입) 가게, 주택(전기, 플 러밍)모든 공사. 211-63 46th Ave Bayside 11362 ☎718-986-2442

열쇠 깎는 기계, 구두수선용 슈 잉머신, 공업용 Juki 슈잉 머신 또는 유사 제품 구매합니다 ☎347-325-6644

야마하공인

-12/23/17---------------------------------------------------------------------------------------------------------------------------------------------------------------------------------------------------------------------------1/20/18-----

휴대용 줄기세포 판매 판매 상담해드립니다

646-279-1127 646-634-8080

줄 광고 $25/한달 줄박스광고 $45/한달 (50자/ 55자 기준) 광고마감 월, 금 3시까지

718-359-0700

5/13/17-------------------------------------------------------------------------------------------------------------------------------------------------------------------------------------------------------------------------------------PJ ---------------------------------------------------------------------------------------------------------------------------------------------------------------------------------------------------------------------------------------------

SK플세탁기/드라이어 설치 수리 판매 가정용, 상업용-Wascomat 50파운드 7대, 35파운드 14대, 28파운드 14대18파운드 7대, Dryer 2층 15대, LG 드럼용 세탁 기/드라이어 ☎201-618-8497 ☎201-313-1686 ---------------------------------------------------------------------------------------------------------------------------------------------------------------------------------------------------------------------------------------------

의자 천가리 전문업체. 네일의자, 페디케어체어, 식탁의자, 미용실 의자,맛사지 침대, 부박이소파 쿠 션 / 주문제작 천가리 전문업체 네일가구 수리해드립니다. 저렴 한 비용으로 수리해드립니다 ☎347-786-0111 ☎646-581-1200

TV 스탠드, 서랍장 팝니다. 위치 : 뉴저지 앵글우드 ☎917-355-1198 -1/23/18---------------------------------------------------------------------------------------------------------------------------------------------------------------------------------------------------------------------------2/17/18-----

런드리 장비 팝니다 세탁소용 컴퓨터 거의 새것 런드리용 저울, 미싱 머신(수잉, 메로 블라인더) 3개 ☎718-788-1420 -1/20/18---------------------------------------------------------------------------------------------------------------------------------------------------------------------------------------------------------------------------2/13/18-----

LG 에어컨 12000 BTU $100/빨 간색 커피 포트 $25/ 컴퓨터 모니 터 3대 각$20 저렴하게 팝니다 (벼룩시장) ☎718-359-0700 4/4/17---------------------------------------------------------------------------------------------------------------------------------------------------------------------------------------------------------------------------------------e

마이크로웨이브 중간 사이즈 팝니다 $50 ☎718-359-0700

피아노 매매 전문가용 5'10" kawai grand piano $6500 ☎917-385-8239

5/13/17------------------------------------------------------------------------------------------------------------------------------------------------------------------------------------------------------------------------------------Free

음이온 찜질방 (썬조이) 고령토 볼 흙에 관심을 가지고 투자를 하 실분이나 별도로 고령토 볼 을 구 입하시고 싶으신 분은 연락 주세 요. Sam ☎914-582-8904

8/26/17------------------------------------------------------------------------------------------------------------------------------------------------------------------------------------------------------------정이사----------------------

피아노 조율 수리 전문. 외국인 음악가도 인정하는 야마하 공인 조율사 제임스박 ☎917-385-8239 -------------------------------------------------------------------------------------------------------------------------------------------------------------------------------------------------------------------------------------------JE

-------------------------------------------------------------------------------------------------------------------------------------------------------------------------------------------------------------------------------------------JE

씰리침대. 새것 싱글199불.더블289불 딜리버리 가능 20불 ☎718-229-0089 -------------------------------------------------------------------------------------------------------------------------------------------------------------------------------------------------------------------------정이-----------------

프로죤 요구르트 기계 거의 사용 안한 새것 ☎917-418-9396

피아노 관악기 현악기 출장수리. 피아노 조율 및 모든 악기 완벽히 수리. 저렴하게 봉사함 ☎917-678-2957 ---------------------------------------------------------------------------------------------------------------------------------------------------------------------------------------------------------------------------------------------

Kawai Baby Grand 피아노 급매 5‘7“ Model G2N 검은색 거의 신 품(6개월사용) 신품과 동일 상태 최상의 소리 $8,500 ☎201-707-0561 02/04/05-J-------------------------------------------------------------------------------------------------------------------------------------------------------------------------------------------------------------------------------------

사용하던 드럼 SET 싸게 팝니다 $500 ☎646-400-1775 ------------------------------------------------------------------------------------------------------------------------------------------------------------------------------------------------------------정이사----------------------------

천리마 이사 중소형, 유학생, 장거리, 이사전 문 업소. IKEA 픽업 앤 딜리버리 전문 ☎718-902-4884 ---------------------------------------------------------------------------------------------------------------------------------------------------------------------------------------------------------------------------------------2/3/18-

대박 이사짐 센타. 요즘 힘드시죠. 저렴하게 옮겨드 립니다. 가정집 학생 사무실 이삿 짐 전문 Mr. 강 ☎ 646-294-0022 ---------------------------------------------------------------------------------------------------------------------------------------------------------------------------------------------------------------------------------------------

깡통밴 이삿짐 미국 전지역 성심 성의껏 최선을 다합니다. 장/단거리 이삿짐, 창 고, 사무실, 유학생 이사, 작은짐( 룸메이트) ☎718-813-9696 ---------------------------------------------------------------------------------------------------------------------------------------------------------------------------------------------------------------------------------------------


B34

Saturday, February 10, 2018

www.FindAllNY.com

자동차 45%off차 출장수리

98' 지프 체로키

컴퓨터 첵업 무료/ 최저가 보장 브레이크 $30 팬벨트 $60 타이밍 벨트 $200 튠업 $150

917-681-2281

45% Off 자동차 출장 수리 컴퓨터 첵업 무료. 최저가 보장. 브레이크 $30 / 팬벨트 $60 / 타이밍 벨트 $200 / 튠업 $150 ☎ 917-681-2281 --------------------------------------------------------------------------------------------------------------------------------------------------------------------------------------------------------------------------------------------

2013 TOYOTA SIENNA 7인승 벤 깨끗하고 상태좋음 $7000 ☎347-925-3312 ☎347-925-3324 -2/10/18--------------------------------------------------------------------------------------------------------------------------------------------------------------------------------------------------------------------------------3/10/18-

2004 JEEP GRAND CHEROKEE 16만 마일 $1,500 ☎718-570-5959 ---------------------------------------------------------------------------------------------------------------------------------------------------------------------------------------------------------------------------------------boss---

1998 JEEP GRAND CHEROKEE 100,500 마일리지 상태양호 $2,300 ☎718-445-6565

CARS/AUTOS 자동차 튜닝 | 수리 | 대형밴 | 트럭 | 깡통밴 | 운전보험 | 운전학원

04' 지프 체로키

새차 중고차 구입

페이먼남은차인수

차매매 도와드림

1998 Jeep grand cherokee 100,500 mile 상태양호 $2,300

2004 JEEP GRAND CHEROKEE 16만 마일 $1,500

융자나 리스 하실분 크레딧 점수 낮으신분 유학생 신분 상담 환영 리스리턴 무료대행 NY MOTO

페이먼 남은차 인수합니다.

크레딧이 안좋으시거나 다운페이 자금이 없으셔도 괜찮습니다. (NY, NJ)

718-445-6565

718-570-5959

718-737-2228

646-294-0022

516-707-0709

2018 KIA FORTE $1200 다운 $119/M 36개월 10K/Y ☎718-362-3555

2018 NISSAN SENTRA SV $1000 다운 하시고 다달이 $139 36개월 12K/Y ☎347-494-1287

2018 TOYOTA HIGHLANDER 7인승 $2000 다운 하시고 다달이 $249 36MO 10K/Y ☎347-494-1287

2018 HONDA ODYSSEY $2000 다운하시고 매달 $299 36MO 10K/Y ☎347-494-1287

2018 VOLKSWAGEN PASSAT $1800 다운하시고 매달 $139 36MO 10K/Y ☎718-737-2228

------------------------------------------------------------------------------------------------------------------------------------------------------------------------------------------------------------------------------------------NY

------------------------------------------------------------------------------------------------------------------------------------------------------------------------------------------------------------------------------------------NY

------------------------------------------------------------------------------------------------------------------------------------------------------------------------------------------------------------------------------------------NY

------------------------------------------------------------------------------------------------------------------------------------------------------------------------------------------------------------------------------------------NY

------------------------------------------------------------------------------------------------------------------------------------------------------------------------------------------------------------------------------------------NY

2018 KIA OPTIMA $2000 다운페이 $139/M 36개월 10K/Y ☎718-737-2228

2018 NISSAN ALTIMA $1000 DOWN $199/M 36MO 12K/Y ☎718-362-3555

2018 TOYOTA SIENNA LE $2500 DOWN $259/M 36MO 10K/Y ☎718-362-3555

2018 HONDA PILOT $2000 다운하시고 매달 $349 36MO 10K/Y ☎718-362-3555

2018 LEXUS RX350 AWD $2500 DOWM $359/M 36MO 10K/Y ☎347-494-1287

------------------------------------------------------------------------------------------------------------------------------------------------------------------------------------------------------------------------------------------NY

------------------------------------------------------------------------------------------------------------------------------------------------------------------------------------------------------------------------------------------NY

------------------------------------------------------------------------------------------------------------------------------------------------------------------------------------------------------------------------------------------NY

------------------------------------------------------------------------------------------------------------------------------------------------------------------------------------------------------------------------------------------NY

------------------------------------------------------------------------------------------------------------------------------------------------------------------------------------------------------------------------------------------NY

2018 기아 세도나 미니밴 $1000 다운하시고 매달 $269 36개월 10K/Y ☎201-310-8800

2018 PATHFINDER S AWD $1000 DOWN $289/M 36MO 12K/Y 7인승 ☎201-310-8800

2018 RAV-4 AWD $1000 DOWN $219/M 36MO 10K/Y ☎718-737-2228

2018 HONDA CIVIC LX $1500 DOWN $189/M 36MO 10K/Y ☎201-210-5855

2018 LEXUS ES350 $2000 DOWN $299/M 36MO 10K/Y ☎718-737-2228

------------------------------------------------------------------------------------------------------------------------------------------------------------------------------------------------------------------------------------------NY

------------------------------------------------------------------------------------------------------------------------------------------------------------------------------------------------------------------------------------------NY

------------------------------------------------------------------------------------------------------------------------------------------------------------------------------------------------------------------------------------------NY

------------------------------------------------------------------------------------------------------------------------------------------------------------------------------------------------------------------------------------------NY

------------------------------------------------------------------------------------------------------------------------------------------------------------------------------------------------------------------------------------------NY

2018 기아 소렌토 AWD $1800 DOWN $219/M 36개월 10K/Y ☎718-737-2228

2018 NISSAN MURANO $2000 DOWN $239/M 36MO 12K/Y ☎718-362-3555

2018 TOYOTA CAMRY $1500 다운 하시고 다달이 $179 36개월 $10K/Y ☎347-494-1287

2018 GRAND CHEROKEE $3000 다운하시고 매달 $349 36MO 10K/Y ☎718-362-3555

2018 LEXUS NX300 AWD $2000 DOWN $299/M 36MO 10K/Y ☎718-362-3555

------------------------------------------------------------------------------------------------------------------------------------------------------------------------------------------------------------------------------------------NY

------------------------------------------------------------------------------------------------------------------------------------------------------------------------------------------------------------------------------------------NY

------------------------------------------------------------------------------------------------------------------------------------------------------------------------------------------------------------------------------------------NY

------------------------------------------------------------------------------------------------------------------------------------------------------------------------------------------------------------------------------------------NY

------------------------------------------------------------------------------------------------------------------------------------------------------------------------------------------------------------------------------------------NY

2018 KIA SPORTAGE AWD $1400 DOWN $199/M 36MO 10K/Y ☎347-494-1287

2018 NISSAN MAXIMA $1800 DOWN $219/M 36MO 12K/Y ☎201-210-5855

2018 HONDA ACCORD $2000 다운 하시고 다달이 $239 36MO 10K/Y ☎201-310-8800

2018 CHRYSLER MINIVAN $2000 다운하시고 매달 $289 36MO 10K/Y ☎718-737-2228

2018 ACURA MDX AWD $3000 DOWN $389/M 36MO 10K/Y ☎718-737-2228

------------------------------------------------------------------------------------------------------------------------------------------------------------------------------------------------------------------------------------------NY

------------------------------------------------------------------------------------------------------------------------------------------------------------------------------------------------------------------------------------------NY

------------------------------------------------------------------------------------------------------------------------------------------------------------------------------------------------------------------------------------------NY

------------------------------------------------------------------------------------------------------------------------------------------------------------------------------------------------------------------------------------------NY

------------------------------------------------------------------------------------------------------------------------------------------------------------------------------------------------------------------------------------------NY

2018 NISSAN ROGUE SV $1000 DOWN $199/M 36MP 12K/Y ☎718-737-2228

2018 TOYOTA COROLLA $1000 DOWN $159/M 36MO 10K/Y ☎718-737-2228

2018 HONDA CRV AWD $2000 DOWN $259/M 36MO 10K/Y ☎718-737-2228

2018 VOLKSWAGEN 승용차 $1800 다운하시고 매달 $119 36MO 10K/Y ☎347-494-1287

2018 BENZ CLA250 AWD $2500 DOWN $299/M 36MO 10K/Y ☎201-310-8800

------------------------------------------------------------------------------------------------------------------------------------------------------------------------------------------------------------------------------------------NY

------------------------------------------------------------------------------------------------------------------------------------------------------------------------------------------------------------------------------------------NY

------------------------------------------------------------------------------------------------------------------------------------------------------------------------------------------------------------------------------------------NY

------------------------------------------------------------------------------------------------------------------------------------------------------------------------------------------------------------------------------------------NY

------------------------------------------------------------------------------------------------------------------------------------------------------------------------------------------------------------------------------------------NY

승용차나 4x4.

---------------------------------------------------------------------------------------------------------------------------------------------------------------------------------------------------------------------------------------------

2017 LEXUS NX200T AWD 36개월 10K M/Y $2499 DOWN $289/M ☎718-362-3555 ---------------------------------------------------------------------------------------------------------------------------------------------------------------------------------------------------------------------------------------------


www.FindAllNY.com

2018년 2월 10일 (토)

한국, '자율주행 차량 준비' 10위에… 종합점수 20.71으로 20개국 중 중간 한국이 전 세계 주요 국가를 대상으로 한 ‘자율 주행차 준비 지수’(AV Readiness Index) 순위 에서 10위에 올랐다. 한국은 기반시설과 정책 및 제도 부문에서는 높 은 점수를 받았지만, 소비자 수용성과 기술 및 혁 신 측면에서는 다소 뒤처졌다. 글로벌 회계·컨설팅기업 KPMG 인터내셔널 이 최근 발간한 ‘자율주행차 준비 지수’ 보고서 에 따르면 한국은 종합접수 20.71점으로 20개 국 가 중 10위를 차지했다. 세부 평가항목별로 보면 기반시설은 6.32점(4

위), 정책 및 제도는 5.78점(14위)으로 비교적 높은 점수를 받았고 소비자 수용성은 4.38점(11 위), 기술 및 혁신은 4.24점(9위)을 각각 기록했 다. 한국은 기반시설 중 자율주행에 중요한 4G 사 용성 면에서 일본과 미국 등을 제치고 세계 최고 수준을 나타냈다. 자동차 도로 상태가 좋은 점도 긍정적으로 평가됐다. 정책 및 제도 부문은 자율주행차의 시범운행과 관련 기반시설에 대한 정부 투자가 활발하다는 점에서 양호한 점수를 획득했다.

반면 소비자 수용성 점수는 낮은 편이었다. KPMG가 자율주행차 시험이 진행되는 지역의 인구 밀도를 파악한 결과 한국은 5%에도 못 미 쳐 싱가포르(100%)나 네덜란드(79%), 캐나다 (37%)보다 훨씬 낮았다. 소비자 변화 준비 지수(Change Readiness Index) 조사에서도 136개국 중 36위에 그쳐 기 술 변화에 대응하는 정도가 상대적으로 저조한 것으로 분석됐다. 기술 및 혁신 부문의 경우 한국은 산업 파트너 십과 연구개발 허브(hub), 특허권이 우수하다는 평가를 받았다. 하지만 자율주행 기술 관련 기업 본사가 거의 없고 전기차 이용이 저조하며, 자율주행 산업을 키울 동력으로 꼽히는 우버 등 차량호출(카헤일

B35

링) 서비스가 충분하지 못하다는 점 때문에 전체 적인 점수가 깎였다. 자율주행차 준비 지수 1위는 총점 27.73점을 획 득한 네덜란드였다. 네덜란드는 기반시설(7.89 점·1위), 소비자 수용성(6.49점·2위), 정책 및 입법(7.89점·3위), 기술 및 혁신(5.46점·4위) 등 모든 부문에서 고루 높은 점수를 받았다. 26.08점을 얻은 싱가포르는 정책 및 입법(8.49 점·1위), 소비자 수용성(6.63점·1위), 기반시 설(6.72점·2위)에서 최상위권을 휩쓸었으나 기 술 및 혁신이 4.26점(8위)으로 낮아 2위에 올랐 다. 총점 3위인 미국(24.75점)은 기술 및 혁신 부문 에서 1위(6.97점)를 기록했다.

메르세데스 벤츠, 신형 스프린터 공개 토요타, 美 비영리 단체 'OSRF' 지원

메르세데스 벤츠가 신형 스프린터를 공개했다. 스프린터는 메르세데스 벤츠의 주력 상용차량 으로 현재 판매 되고 있는 모델은 2006년 처음 공 개된 2세대 모델이다. 스프린터는 용도에 따라 밴, 픽업 트럭 등 다양한 라인업을 갖추고, 세계 약 130 개국에서 판매되고 있다. 지금까지 전 세 계 누적 판매 대수는 340만대에 이른다. 이번에 출시된 메르세데스 벤츠 스프린터는 12 년 만에 풀모델 체인지된 3세대 모델로 커넥티 비티 상용차를 표방하고 있다. 다양한 커넥티드

기능과 함께 2개의 대형 디스플레이 창이 구성 되어 있다. 뿐만 아니라, 메르세데스 벤츠 신형 A클래스에 이어 2번째로 터치 스크린과 음성 제어를 기능을 갖춘 차세대 멀티미디어 시스템 'MBUX'(메르 세데스 벤츠 유저 익스피리언스)가 적용되었다. 이를 통해 스티어링 휠의 버튼 뿐만 아니라 터치 스크린과 음성 제어 시스템으로 다양한 기능을 사용할 수 있다.

토요타 내에서 인공지능 기술 연구개발을 담 당하고 있는 토요타 연구 기관(TRI)이 미국에 서 로봇 전용 오픈 소스 소프트웨어를 제작하 는 비영리단체 OSRF(Open Source Robotics Foundation)를 지원하기로 했다. 이로써 토요 타는 OSRF를 2년 연속 지원하는 것이며, 올해 에는 1백만 달러의 비용을 지원할 계획이다. OSRF는 로봇 소프트웨어 제작을 도와주는 유 연한 프레임워크인 로봇 운영 시스템(ROS Robot Operating System)를 개발했으며, 3D 멀티-로봇 시뮬레이터인 가제보(Gazebo)를 보유하고 있다. OSRF의 CEO는 “오픈 소스 로 봇 소프트웨어 시스템은 자동차 업계에서 보급

률이 높아지고 있으며, 시스템의 품질과 완성도 를 높이는 데 TRI가 큰 도움을 주고 있다”라고 말했다. OSRF는 TRI의 지원을 받아 ROS와 가제보의 기능 및 성능을 향상시킬 계획이며, 이를 통해 자동차를 좀 더 발전시킬 수 있을 것으로 예상 된다. 또한 차세대 ROS인 ROS2를 개발하며, 이 를 통해 자율주행차의 인공지능을 크게 발전시 킬 수 있을 것으로 기대하고 있다. 가제보는 자 율주행차의 시뮬레이션 테스트에 사용되며, 이 를 통해 다양한 상황에서 안전을 확보할 수 있 도록 한다.


B36

Saturday, February 10, 2018

www.FindAllNY.com


www.FindAllNY.com

2018년 2월 10일 (토)

B37


B38

Saturday, February 10, 2018

www.FindAllNY.com


www.FindAllNY.com

2018년 2월 10일 (토)

B39


B40

Saturday, February 10, 2018

www.FindAllNY.com

구글에서 제이스가라지 검색하세요

내차 수리 어디로 가야할까? ONE-STOP SERVICE

이제 고민말고

제이스가라지로 오세요

사고를 당하셨습니까? 정비가 필요하십니까?

GLOABLE PAINT

최신식 열처리 스프레이 부스 2개의 스프레이부스로 신속,정확 자동차 구입,판매,렌트카 토잉,보험클레임,정비,바디,프레임,오토페인팅,디테일링까지!!

이 모든것을 한곳에서!!!

고객의 소중한 차 최고의 기술진 과 20 여년의 노하우로 정성껏 모시겠습니다.

s dean st

s van brunt st

w forest ave

grand ave s dean st

rt 4

 201.816.1161  201.816.9511

e palisades ave

무료견적 / 점검

제이스가라지

GWB

CROWN PLAZA

제이스가라지 www.jgausa.com paramus Jaygarageinc@gmail.com 267 S VAN BRUNT ST ENGLEWOOD NJ


www.FindAllNY.com

2018년 2월 10일 (토)

A27


A28

Saturday, February 10, 2018

www.FindAllNY.com

BTS, 프로레슬링 스타 '존 시나'까지… 존 시나, SNS에 방탄소년단 팬 인증 미국인이 사랑하는 프로레슬 러 존 시나가 방탄소년단의 매 력에 푹 빠졌다. 최근 존 시나의 인스타그램에 올라온 사진 속에는 금발머리 를 한 남성이 손으로 '새'를 표 현하며 하늘을 바라보고 있다. 또 다른 사진에는 검정 바탕에 붉은 색 글씨로 'MIC DROP' 이라고 써 있다. 존 시나는 해당 사진을 올리며 아무런 설명도 덧붙이지 않았 지만 사진을 본 팬들은 이 두 사 진이 모두 'BTS', 바로 방탄소 년단을 의미한다는 걸 알았다. 미국에서 엄청난 인기를 얻고 있는 방탄소년단의 위세가 프 로레슬링 스타 존 시나마저 팬 으로 만든 것이다. 사진 속 남성은 방탄소년단 의 메인 댄서 제이홉, 'MIC DROP'은 빌보드 차트 28위까 지 올랐던 방탄소년단의 노래 제목이다. 인스타그램에 사진까지 올리 며 '팬 인증'을 하자 미국은 물 론 각국의 팬들이 '아미'가 된 것을 환영한다는 반응을 보였

다. 한편 존 시나는 현세대 WWE (World Wrestling Entertainment)를 대표하는 선수 중 한 명으로 WWE에서 월드 챔피

언 13회, 미국 챔피언 5회, 태그 매치 챔피언 2회, 로얄럼블 우 승 2회를 차지했으며 WWE 슬 래미 어워드 올해의 슈퍼스타 도 세 차례나 수상한 바 있다.


www.FindAllNY.com

2018년 2월 10일 (토)

백스트리트보이즈, "방탄소년단 열혈팬" 미국 유명 팝 그룹 백스트리트 보이즈(Back street Boys)가 한국 아이돌 그룹 방탄소년단에 대한 남다른 애정을 드러냈다. 백스트리트 보이즈는 공식 트위터를 통해 "우 리는 방탄소년단의 열혈 팬이다. 너무 좋아한다" 고 밝혔다. 방탄소년단과 최근 신곡 'MIC Drop' 리믹스 버전 트랙을 작업한 유명 프로듀서 스티브 아오 키에 얽힌 비화도 공개했다. 백스트리트 보이즈 는 "사실 스티브 아오키가 방탄소년단 노래 중 아직 발표되지 않은 곡을 들려줬다. 아오키가 리 믹스한 곡을 스튜디오에서 들려줬는데, 우리도 스티브 아오키와 함께 작업하고 있다"고 말했다.

이어 "미국 라스베이거스에서 열리는 백스트리 트 보이즈 공연에 방탄소년단 멤버들을 초대하 고 싶다. 앞으로도 방탄소년단이 계속 잘 되길 바란다"고 방탄소년단을 응원했다. 또 "브라이언 리트렐이 지금 이 자리에 없는데 한국에서 비행기를 타고 오는 중"이라며 "방탄 소년단 멤버가 되고 싶어한다"고 덧붙였다. 1996년 1집 앨범 'Backstreet Boys'으로 데뷔 한 백스트리트 보이즈는 1999년 미국 '빌보드 뮤 직 어워드'에서 올해의 아티스트, 올해의 앨범, 올해의 그룹상을 수상했다. 이어 2000년 '아메리 칸 뮤직 어워드'에서는 인기 그룹상 트로피를 거 머쥐었다.

A29


A30

Saturday, February 10, 2018

www.FindAllNY.com


www.FindAllNY.com

2018년 2월 10일 (토)

법률·변호사

LAW·ATTORNEY 상법 | 이민법 | 형사/민사법 | 교통사고/사고상해전문

드리머 보호 등 이민개혁법 2월말 상원서 표결 이민협상 타결못해 난항…가족이민 폐지범위 축소가 관건 DACA 드리머 보호와 국경안전강 화 등을 담은 이민개혁법안을 놓고 연 방상원이 본회의 토론에 돌입한다 연방상원은 내주 5일간 이민개혁법 토론을 실시하고 일주일을 휴회한후 에 2월말 표결을 실시할 예정이다 DACA 드리머들의 운명과 가족이 민 축소문제를 결정짓는 이번 이민개

혁법안은 오는 26일부터 상원 본회의 를 속개해 수정안을 포함하는 일련의 표결을 실시하게 된다. DACA 추방유예 정책의 폐지일인 3 월 5일 이전에 이민개혁법을 최종 가 결해야 하지만 상당한 난항을 겪을 것 으로 우려되고 있다 법안 내용 중 요지는 트럼프 대통령

의 4대 범주안 내 드리머 180만명에게 10~12년후 시민권까지 허용하는 대신 국경 장벽건설 예산으로 10년간 250억 달러를 투입하고 추첨영주권을 폐지 한다는 내용이 통과될 수 있느냐, 가 족이민 폐지범위를 축소하는 민주당 의 주장에 대해 어떻게 타협책을 찾느 냐가 최대 관건이 될 것으로 보인다.

30년 美거주 교수, 자녀들 앞 체포돼 추방위기 범죄기록도 전혀 없어…무분별한 체포, 불체자 공포감 확산 미국에서 30년 넘게 살면서 대학교수 와 지역사회 리더로 활동해온 방글라 데시 출신 이민자가 연방 이민세관단 속국(ICE)에 체포돼 추방 위기에 처 했다. 체포된 방글라데시 출신 대학교수는 범죄기록도 전혀 없는 상태였다. 워싱턴포스트 등에 따르면 30년 전 미국에 유학 와 캔자스시티에 정착해

살고 있던 시에드 아흐메드 자말(55. 사진)은 지난달 24일 초등학생 딸을 학교에 데려다주기 위해 집을 나서다 가 앞마당에 대기하고 있던 이민세관 단속국 요원들에게 수갑이 채워진 채 로 연행됐다. 14세와 12세, 7세 된 세 자녀와 아내 등 가족들이 자말이 끌려가는 모습을 지켜봤다.

자말은 애초 유학생 비자로 미국에 온 뒤 취업비자(H-1B)를 받아 일하 다가 박사과정을 공부하기 위해 다시 학생비자 신분으로 바꿔으며, 한때 신 분 문제가 있었다가 최근까지 임시 체 류 비자로 거주해왔다. 자말은 캔자스시티 파크대학에서 객 원교수로 화학 등을 가르치며 여러 병 원에서 연구활동을 한 경력도 있다.

필리핀 도피 한국인 '1천억 투자사기' 필리핀 이민국 체포…한국서 1만명에 피해입혀 1천억원 규모의 사기 혐의로 수배된 50대 한국인이 필리핀에서 도피 생활 을 하다가 체포된 것으로 나타났다.

현지 언론 보도에 따르면 한국인 A(51)씨가 지난 6일 필리핀 수도권인 메트로마닐라의 케손 시에서 현지 이

A31

민국에 체포됐다. 불법 체류자 신분인 A씨는 2000년대 한국에서 1만여 명에게 건설투자 사기

그는 미국에서 세 아이를 낳아 자녀는 모두 미 시민 권자이며 아내는 학교에서 자원봉사자로 일하고 학부 모 위원회에서도 왕성하게 활동하고 있다. 제프리 베넷 변호사는 “자 말의 체포를 보면 이민세관 단속국이 과거 범죄 전력 이 있거나 현재 체류 비자 가 만료된 사람만 문제 삼 는 게 아니라는 점을 반증 한다”고 지적했다.

로 약 1천억 원의 피해를 준 혐의를 받 고 있다. 필리핀 이민국은 A씨에 대한 조사를 마친 뒤 한국으로 추방할 것으로 알려 졌다.


A32

Saturday, February 10, 2018

www.FindAllNY.com

"고은 시인 성추행, 수면 위로…"

서지현 검사 사무실 없애고 짐 빼

류근 시인, '괴물' 고은 시인 실명 공개

MBC, 통영지청의 일방적 보복조치 보도

문단 성추행을 폭로한 최영미 시인의 시 ‘괴물’ 이 재조명되고 있는 가운데, 류근 시인이 “고은 시인의 성추행 문제가 ‘드디어’ 수면 위로 드러 난 모양”이라고 말했다. 매년 노벨문학상 후보로 거론되는 고은 시인을 직접 언급했다. 류 시인은 페이스북에 “몰랐다고?”라는 물음으 로 “놀랍고 지겹다”면서 “60~70년대부터 공공연 했던 고은 시인의 손버릇, 몸버릇을 이제야 마 치 처음 듣는 일이라는 듯 소스라치는 척하는 문 인과 언론의 반응이 놀랍고, 오래 전부터 고 시 인의 성추행이 있었지만 문단이 이를 쉬쉬했다 고 비판했다.

류 시인은 “소위 ‘문단’ 근처에라도 기웃거린 내 또래 이상의 문인 가운데 고은 시인의 기행 과 비행을 들어보지 못한 사람이 얼마나 되나” 라고 물었다.

검찰이 성폭력 피해를 폭로한 서지현 검사(사진)의 사무실을 없애고 본인의 짐을 본인 정리 해 관사로 보냈다는 보도가 나 와 파문이 일고 있다. 검찰은 서 검사의 요청에 따라 처리한 것 이라고 해명했지만 서 검사 측 은 일방적으로 통보를 받았으 며 이는 일종의 ‘보복조치’라고 주장했다. MBC 보도에 따르면 통영지 청은 병가 상태인 서 검사의 사

무실을 아예 없앴다. 사무실에 있던 서 검사의 짐은 정리해 관 사로 옮겼다. 서 검사와 일하던 직원들도 모두 다른 검사에게 배치됐다. 이에 대해 검찰 측은 “검사가 없으면 해당 팀이 일을 할 수 없 어 직원 및 사무실 재배치가 불 가피했으며 짐은 서 검사의 요 청에 따라 처리했다”고 해명했 다. 하지만 서 검사 측의 입장은

달랐다. 서 검사 측은 “짐을 뺐 다는 통보를 받았을 뿐 통영지 청의 조치는 자신과 상의 없이 일방적으로 이뤄진 일종의 보 복조치로 받아들일 수밖에 없 었다”고 반박했다.

"집으로 찾아와서"…"야근하는데"

아기 출산하고 가방에 방치한 20대

여자 수사관 성추행한 검찰수사관들 구속

출산 전 이미 사산했을 경우는 처벌 어려워

서지현(45) 검사의 성추행 의 혹 폭로 이후 검찰이 대규모 진 상조사를 벌이고 있는 가운데, 최근 검찰 내에서여성 수사관 2명이 동료 수사관에게 성폭력 을 당한 것으로 확인됐다. 검찰에 따르면, 지방의 한 지 청 소속 7급 수사관 이모(45)씨 는 최근 부서 회식 후 술에 취해 같은 부서 여성 수사관 A씨의 집까지 뒤따라갔다. 지난달 인

사 발령을 받고 타 지역에서 오 는 바람에 A씨는 혼자 살고 있 었다. A씨가 집 앞에 도착해 문 을 여는 순간 이씨는 갑자기 나 타나 와락 껴안으면서 집 안으 로 들어갔다. 그리고는 동료를 성폭행하려고 한 것이다. 지난달 또 다른 지청에서도 6 급 수사관 한모(54)씨가 동료 여성 수사관을 강제추행 했다 가 구속됐다.

검찰 내 성폭력 문제는 지금 까지 여검사에만 초점이 맞춰 져 있었지만, 검찰 내부에서는 “검사들보다 여성 수사관과 여 성 실무관들의 성폭력 피해는 더욱 심각한 수준”이라는 말이 공공연히 나오고 있다. 검사나 수사관 할 것 없이 남자들은 여 성 수사관과 실무관들을 함부 로 대하는 것도 검찰의 독특한 문화 중 하나다”라고 말했다.

20세 여성이 임신 6개월 만에 아이를 출산한 뒤 여행용 가방 에 방치한 사건이 발생한 가운 데 이 아이가 숨진 상태에서 태 어났다는 소견이 나왔다. 아이를 출산했던 생모는 현행 법상 처벌 조항이 없어 형사처 벌은 면하게 됐다. 경기도 수원경찰서에 따르면 20세 딸과 그녀의 아버지는 갓 태어난 아기의 시신이 담긴 여

행용 가방을 들고 파출소를 찾 아왔다는 것. 딸은 임신 6개월 만에 자신의 집에서 아이를 낳았지만 부모 님에게 들킬까 두려워 여행용 가방에 넣어뒀다. 딸이 나간 사이 아버지는 여행 용 가방에 담긴 아이를 발견하 고 딸을 불러 얘기를 들은 후 아 이 시신이 든 가방을 들고 함께 파출소를 찾았다.

딸은 전 남자친구와 만나던 중 임신 사실을 알았지만 한 번도 병원을 찾지 않았다. 국립과학수사연구원에 부검 을 의뢰한 결과 사산으로 판명 됐다. 현행법상 태어날 때 이미 사망 한 아이는 ‘인간’으로 판단하지 않기 때문에 경찰은 딸을 형사 입건하지 않았다.


www.FindAllNY.com

2018년 2월 10일 (토)

A33

사고를 분석하는 또다른 관점, 불량품에 대한 제조 업체의 피해보상 책임

안녕하세요, 송동호 종합로펌의 사 고상해 팀입니다. 불의의 사고로 상해 를 입은 피해자들이 일반적으로 생각 하는 해결법은 사고를 낸 가해자 개인 을 상대로 보상금을 청구하거나 소송 을 제기하는 것입니다. 하지만 가해자 의 과실과는 별개로, 완전히 다른 종 류의 피해보상 청구권이 존재하는 경 우도 있는데, 바로 불량한 상품을 구 매함으로 인하여 소비자가 피해를 당 한 ‘생산물 책임 (product liability)’ 케이스들입니다. 이러한 생산물 책임 케이스는 보통 상품을 생산하는 거대 한 제조업체를 상대로 진행되기 때문 에, 실력 있는 사고상해 변호사의 손 을 거치면 몇 백만 달러를 상회하는 높은 액수의 보상금을 수령할 수도 있

습니다. 보통 생산물 책임과 연관 짓지 않는 일반 교통사고에서도, 가해 차량과 의 충돌로 인하여 발생한 상해가 피 해 차량의 부실함으로 인하여 더욱 심 각해진 경우라면, 차량을 생산한 업 체를 상대로 생산물 책임을 물어 추 가적인 피해보상을 청구할 수 있습니 다. 최근 특정 Toyota 모델을 운전하 다가 교통사고에 휘말린 피해자들이 Toyota를 상대로 몇 백만 달러를 상 회하는 보상금을 요구한 케이스가 그 예입니다. 해당 피해자들은 교통사고 가 발생한 이유 중 하나가 해당 차량 의 페달이 잘못 설계되어서 차체에 갑 작스런 가속도가 붙었기 때문이라는 주장을 펴 Toyota에 생산물 책임을

물었습니다. 이러한 생산물 책임 케이스에서 성 공적으로 피해보상을 요구하려면, 무 엇을 증명하여야 할까요? 생산물 책 임 케이스는 크게 세 가지 종류로 나 뉘는데, ‘가공 오차 (manufacturing error)’ 케이스, ‘설계상 결함 (design defect)’ 케이스, 그리고 ‘경고 부실 (failure to warn)’ 케이스입니다. 간 단한 예로 피해자가 몸살에 걸려서 감 기 약을 복용하였다가 도리어 심장 마 비를 겪은 실제 케이스를 생각해 보겠 습니다. 사고상해 변호사는 이 사고가 정확히 어떤 경위로 발생하였는지를 알아내어, 약품의 제조 업체를 상대로 세 가지 종류의 생산물 책임 케이스 중 한 가지 이상을 제기할 것입니다.

우선 ‘가공 오차’ 케이스는 피해자가 구매한 특정 상품의 하자나 결함으로 인하여 상해를 입은 경우입니다. 감기 약의 예시에서, 만일 피해자가 구매한 약병을 제조하는 과정에서 하필이면 불순물이 들어간 탓에 심장 마비가 발 생한 것이라면, 이는 전형적인 가공 오차 케이스입니다. 반면 ‘설계상 결 함’은 특정 상품 하나가 불량품이어서 사고가 발생한 것이 아니라, 그 제품 의 설계나 디자인 자체가 애당초 불량 해서 사고가 발생한 경우입니다. 감기 약의 예시에서, 피해자가 구매한 약병 하나에 우연히 들어간 불순물이 문제 가 아니라 해당 약품 모두가 제대로 된 안전성 테스트를 거치지 않았다면, 이는 설계상 결함입니다. 이러한 설계 상 결함 케이스는 피해자가 구매한 약 이 제대로 제조되었음에도 불구하고, 그 성분 자체가 애당초 위험하였다는 것을 입증하여야 하기 때문에 그 증명 이 어렵고 주관적입니다. 마지막으로 ‘경고 부실’ 케이스는 해 당 제품을 안전하게 사용하는 방법에 대하여 제조 업체에서 제대로 경고를 하지 않아서 사고가 발생한 경우를 일 컫습니다. 이를테면 위의 예시에서, 피해자가 감기 약을 진통제와 섞어서

먹는 바람에 심장 마비가 발생한 것이 라고 하겠습니다. 이 때, 약 병에 감기 약과 진통제를 섞어 먹으면 위험하다 는 경고문 스티커가 없었다면, 피해자 는 제조 업체가 이러한 경고를 할 책 임이 있었다고 주장하며 피해보상을 요구할 수 있습니다. 즉 이런 경우에 는 해당 약품이 일반적으로 안전하고, 피해자가 구매한 약병이 제조되는 과 정에서도 아무 문제가 없었더라도, 경 고가 부실하였다는 이유만으로 피해 자가 승소할 수 있는 것입니다. 사고의 종류와 무관하게, 상해를 입 은 경위가 위의 세 가지 케이스 중 한 가지 이상에 해당된다면 관련 상품을 제조한 업체에 생산물 책임을 물을 수 있습니다. 위에서 보았듯 일반 교통 사고의 경우에도, 경험 있는 사고상 해 변호사의 자문을 구하면 생산물 책 임에 대한 증거가 있는지를 확인하고 이에 대한 보상을 요구할 수 있습니 다. 따라서 간단해 보이는 사고의 경 우에도, 제기할 수 있는 다양한 종류 의 소송에 관하여 변호사의 견해를 들 어보는 것이 중요하겠습니다. 기타 궁 금하신 점이 있으시면 언제든지 pi@ songlawfirm.com으로 연락 주시기 바랍니다.


A34

Saturday, February 10, 2018

www.FindAllNY.com

"열흘 굶었더니"…쪽방촌의 범죄자

부친이 소파에 숨긴 2억, 아들이 슬쩍

너무 굶어 화나…불 지르고 투숙객 칼로 찔러

7천만원은 남겨…친족간 절도는 처벌못해

쪽방 여관에서 생활하던 50대 일용직 근로자가 자신이 살던 객실에 불을 지르고 다른 투숙객을 칼로 찌른 뒤 자수했다. 이 남성은 경찰 조사에 서 “너무 오래 굶어 화가 나 범행을 저질렀다” 고 진술했다. 6경찰에 따르면 서울시 성북구 장위동의 한 여 관에서 김모 씨(50)가 자신이 살던 방의 이불에 불을 붙였다. 방마다 금세 연기가 들어차기 시작 했고, 다른 객실에 묶던 원모 씨(62)가 복도로 뛰 쳐나왔다. 불이 났다고 생각해 가스 밸브를 잠그 러 부엌으로 갔다. 누군가 연기 속에서 흉기를 휘둘렀다. 김 씨였다. 원 씨는 오른쪽 옆구리와

목 뒤를 다쳤다. 불은 크게 번지지 않았고 출동 한 소방대원에 의해 곧 꺼졌다. 김 씨는 곧바로 인근 지구대에 자수했고 찔린 원 씨는 치료를 받고 퇴원했다. 치료비를 감당 할 자신이 없어서다. 원 씨도 김 씨처럼 일용직 근로자다. 범인 김 씨는 “요즘 같은 세상에 열흘이나 굶으 면서 집에 있다보니 나도 모르게 화가 나서 범행 을 저질렀다”고 진술했다. 피해자인 원 씨는 병원에서 치료를 받고 입원 치료를 권유받았지만 그냥 퇴원했다. 상처 부위 에 거즈만 붙인 채 쪽방 여관으로 돌아왔다.

거실 소파를 떠들어 본 광주시의 65세 남성은 소파 밑에 넣어둔 신문지 뭉치 25개 중 18개가 사 라진 사실을 알고 깜짝 놀랐다. 5만 원권 200장씩 신문지로 돌돌 싸놓은 것들이었다. 1억8000만 원 이 없어진 것이다. 경찰에 신고한 65세 남성은 “도둑이 들어와 훔 쳐간 것 같다”고 말했지만 경찰은 도둑이 2억 5000만원을 다 가져가지 않은 것이 이상했다. 며 칠 뒤 이 남성은 경찰에서 “지난해 추석 때 소파 밑에 모텔을 판 돈을 넣어뒀다고 말했다. 평소 둘째 아들이 돈을 달라고 했다”고 말했다. 경찰이 가족을 상대로 수사를 벌인 결과 해외

도박장 개장 혐의로 체포, 구속된 이 남성의 둘 째 아들(35)이 최근 변호사에게 “아버지 돈을 가 져가도 죄가 되느냐”고 물었다는 사실을 확인했 다. 경찰은 둘째 아들이 수감된 광주교도소를 찾 아 추궁한 결과, 둘째 아들은 “빚이 있는 데다 사 업문제로 소송까지 하게 돼 작년 10월 1억8000만 원을 챙겨왔다. 아버지 돈이라 생각해 7000만원 은 놔뒀다”고 자백했다. 경찰은 둘째 아들이 돈을 훔쳤지만 친족 간의 재산죄는 형을 면제한다는 형법에 따라 처벌할 수 없다고 판단했다. 경찰은 둘째 아들을 불기소 의견으로 검찰에 송치했다.

낸시랭 남편 왕진진, 또 사기 피소 술취해 쓰러진 10대소녀 강간한 30대 "낸시랭도 5400만원 빌린 각서 보고 놀라" 팝 아티스트 낸시랭(40)의 남 편 왕진진(본명 전준주·39)이 사기 혐의로 또 피소됐다. 고미술품 관련 사업가 A씨는 서울 중앙지검에 왕진진에 대 한 고소장을 제출했는데, 왕진 진은 3년 전 사업가 A씨에게 “ 폐암에 걸렸다.”, “아는 사람이 돈이 없어 퇴원을 못 한다.”, “ 하루 안에 주겠다”며 5차례에 걸쳐 총 5400만원을 빌리고 갚 지 않은 혐의로 피소됐다.

A씨는 “(왕진진이) 지난달에 는 낸시랭과 결혼을 했다며 찾 아와서 고소를 참아주면 다 갚 겠다고 했다”며 “(하지만) 약속 했던 시간마저 지나자 이제는 전화도 받지 않아서 고소장을 접수하게 됐다”고 했다. 낸시랭에 대해선 “(왕진진이) 늘 와이프라는 사람과 함께 다 니더니 이날은 연예인이라는 사람과 함께 왔다”며 “(낸시랭 은) 빌린 돈이 이렇다고 왕진진

이 써준 각서를 보더니 '어머, 이렇게나 많아요?' 하고 놀랐 다”고 전했다.

집으로 데려가 강간해 임신시켜…징역 6년 술에 취해 쓰러져 있는 17세 소녀를 강간해 임 신시킨 30대 남성이 중형을 선고 받았다. 춘천지법은 준강간 혐의로 기소된 37세 남성에 게 징역 6년을 선고하고, 80시간의 성폭력 치료 프로그램 이수를 명했다. 이 남성은 새벽 3시경 강원도 춘천시에 있는 자 신의 집 앞에 술에 만취해 쓰러져 있는 17세 B 양을 발견하고 자신의 집으로 데려가 강간했다. 이 범행으로 인해 B양은 임신을 하게 됐고, 임 신 8개월이 지나서야 병원을 방문해 결국 아이 를 출산하게 됐다. 재판부는 “범행의 결과가 매우 중대하고, 피해

자가 상당한 정신적, 육체적, 사회적 고통을 받 고 있다”며 징역 6년을 선고했다.


www.FindAllNY.com

2018년 2월 10일 (토)

A35


A36

Saturday, February 10, 2018

법률·변호사 안내

【Law·Attorney Directory】

TU 'MVTIJOH /:

www.FindAllNY.com

자녀를 논문 저자로 끼워넣기… 82건 부정행위…연구비 105억 챙겨 '끼리끼리' 독점 문화…도덕적 해이 최근 교육부의 실태조사에서 적발된 ‘중고교생 자녀 공저자 끼워 넣기’ 논문 가운데 상당수는 국가연구개발예산을 지원받은 것으로 드러났 다. 자녀의 입시를 위해 부정행위를 했다고 의 심되는 논문에 국가예산이 들어간 사실이 확인 되면서 교수들의 ‘도덕적 해이’가 심각하다는 비 판이 나온다. 교육부에 따르면 중고교생 자녀를 공저자로 끼 워 넣은 논문 82건 가운데 64%인 53건에 정부예 산이 지원됐다. 이 가운데 교육부가 파악한 33건 에만 약 105억 원의 정부예산이 투입됐다. 나머 지 20건은 여러 부처 예산이 산재해 있어 정확한 예산 규모를 확인하지 못했다. 이 중 가장 많은 22억9100만 원을 지원받은 논 문은 서울대 A 교수의 것으로, A 교수의 고3 자 녀가 공동저자로 이름을 올렸다. 연구비의 대부 분은 인건비로 쓰이는 만큼 중고교생 자녀들의 인건비로 유용됐을 가능성이 적지 않아 추가 조 사가 필요한 실정이다. 교수의 자녀들은 영문 철자를 교정하거나 실험 수치 기록을 도왔다는 이유로 공동저자에 이름

을 올린 경우가 많았다. 교육부의 실태 조사에서는 유독 의대 교수들의 ‘도덕적 해이’가 눈에 띄었다. 의대 특유의 폐쇄 적인 서열 문화 속에서 의대 교수들이 독점적 지 위를 활용해 자녀를 논문 저자로 끼워 넣은 것 아 니냐는 지적이 나온다. 입시 전문가들은 “교수 자녀들은 사실상 논문 쓰기가 ‘땅 짚고 헤엄치기’만큼이나 쉬운 일”이 고, “의대에서는 교수인 아버지와 자녀가 지도 교수와 학생 관계를 유지하며 같이 논문을 쓰는 경우가 많고, 그 자녀도 교수가 되는 일이 흔하 다”고 말했다.

'박근혜 대통령이 한자리 줄거야…' 대구 언론사 사장 1년 징역형 2012년 대구의 언론사 사장 이모(59)씨는 2012 년 19대 총선에 출마선언을 한 후 당시 새누리당 에 공천을 신청했다. 2006년부터 사장을 하고 있 던 언론사에는 사표를 냈다. 하지만 새누리는 공 천을 주지 않았다. 그는 선거를 포기했고, 그해 12월 제18대 대통령 선거에서 박근혜 후보는 당 선이 유력했다. 국회의원이 되지 못한 이씨는 그해 평소 박근 혜 대통령과의 친분을 과시하던 홍아무개(49· 여)씨를 만났다. 이씨는 홍씨에게 “정부기관 요 직이나 공기업 사장 자리로 갈 수 있게 박근혜 에게 부탁을 해달라”고 청탁했다. 그러자 홍씨 는 “3억원을 주면 박근혜에게 부탁하며 돈을 전 달해주겠다”고 답했다. 이씨는 홍씨를 믿고 3억 4200만원을 건넸다. 하지만 약속은 지켜지지 않았다. 언론사 사장

을 그만두고 나온 이후 특별한 직업이 없었던 이 씨는 카드 대출을 받아 생활할 정도로 형편이 어 려워졌다. 2016년 11월에는 카드빚이 1억원까지 불어났 다. 그해 11월 이씨는 홍씨를 만나 돈을 돌려줄 것을 요구했다. 홍씨는 1억2400만원만 돌려줬다. 화가 난 이씨는 홍씨에게 욕을 하며 “4년 동안 너 를 위해 사용한 카드대금과 원금, 이자를 포함해 모두 6억4200만원을 달라. 내가 조직폭력배 두 목과 친동생처럼 지내는데 말해서 손 좀 봐야겠 다”고 협박했다. 겁을 먹은 홍씨는 이씨에게 4억 3800만원을 더 줬다. 대구지법은 구속 기소된 이씨에게 징역 1년을 선고했고, 함께 기소된 홍씨에게는 징역 1년6개 월, 추징금 3억4200만원을 선고했다.


www.FindAllNY.com

2018년 2월 10일 (토)

회계사

A37

ACCOUNTANT 회계업무 |재정업무 | 회계사

파이낸셜, SBA 대출사업 매각

트럼프, 1조 5천억불 인프라 투자 발표

한인 최대규모 회사…"팩토링 사업 집중"

자금 조달·규제 완화 등으로 의회 통과 난항 예상

한인이 운영하는 파이낸싱 회사 중 규모가 가 장 큰 하나 파이낸셜(대표 서니 김)이 주력 비즈 니스인 팩토링에 집중하기 위해 SBA 대출 사업 부문을 매각했다. 하나 파이낸셜은 코네티컷주 스탬포드에 본사 를 둔 Patriot Bank의 지주사 PNB에 SBA 대 출 사업 부문을 매각키로 했는데, PNB는 하나 파이낸셜에 현금 8,300만달러를 지급하고 4,100 만달러 부채를 넘겨받게 된다. PNB는 하나 파 이낸셜이 보유하고 있는 1억2,000만달러 규모의 SBA 론 과 3억7,000만달러 규모의 SBA 론 서비 싱 부문, 그리고 SBA부문 직원 20여명의 고용을 넘겨받게 된다. 하나 파이낸셜측은 “사업 집중화가 필요하다

고 판단했다”며 “8,300만달러 매각 기금은 팩토 링 비즈니스와 자산담보대출 등 주력 사업 강화 와 부채 청산 등에 사용할 것이며 지난해 15억달 러에 달했던 팩토링 매출을 올해는 18억달러까 지 늘릴 계획”이라고 말했다.

트럼프 미국 대통령이 향후 10년간 1조5000억 달러 규모의 인프라(사회기반시설) 투자 계획 공개한다. 백악관 관계자는 트럼프 대통령이 5만5000여 곳의 교량 재건축을 포함한 인프라 투자 세부 계 획과 함께 관련 예산과 규제 혁파를 의회에 요 구하는 내용의 구상을 곧 공개할 방침이라고 밝 혔다. 트럼프 대통령의 이같은 계획은 지난 2016년 대 선 당시의 공약이다. 미국 고속도로와 교량, 철도, 공항 등 핵심 기간 시설의 대부분은 1950∼1970년대 지어져 상당히 노후화한 상태다. 전국 교량과 고속도로의 3분 의 1이 보수대상으로 알려졌다.

이러한 시설들의 현대화를 위한 예산 규모는 향 후 10년간 2조달러로 추정된다. 하지만 트럼프 대통령의 이 계획은 자금 조달 방식을 둘러싼 민주당과 및 지방 정부와의 이견 탓에 연내 의회 통과가 만만치 않다는 분석이다.

美 실업수당 청구 22만1천건 불과

뉴욕타임스, 온라인 구독 50% 급증

45년만에 최저…거의 완전고용 수준

온라인 유료독자 250만명…작년 수입 17억불

미국 노동부는 지난주 실업수당 청구 건수가 22 만1천 건으로 전주 대비 9천 건 감소했다고 밝혔 다. 이는 45년 만에 최저 수준으로 작년부터 매달 최저 수준을 갱신하고 있다. 4주 평균 실업수당 청구 건수도 22만4천500건 으로 1만건이 줄어들었다. 실업수당 청구 건수가 감소하면서 임금인상 기 대가 더욱 강화될 것이라는 전망이 나온다. 지난 1월 시간당 평균 임금은 지난해 같은 기간에 비 해 2.9%가 증가해 8년 만에 최대치를 기록했다. 노동시장의 안정 여부를 판단하는 실업수당 청 구 건수는 30만 건인데, 미국은 만 3년간 연속으

로 실업수당 청구가 30만건 이하를 유지하고 있 다. 또 1970년대 이후 가장 낮은 수치다.

일간 뉴욕타임스의 온라인 구독수익이 50% 가 량 가까이 급증했다. 수년간 디지털 전략에 '올인'한 결과다. 날마다 신문을 발행하기는 하지만 실제로는 24시간 온 라인 뉴스에 주력한 지 오래다. 뉴욕타임스는 지난해 총수입이 17억 달러로 전 년 대비 8% 증가했다. 무엇보다 유료 온라인 가입자의 꾸준한 증가세 가 수익을 뒷받침했다. 뉴욕타임스는 "지난해 4분기에만 온라인 유료 독자가 15만7천명 늘었다"면서 "연간 온라인 구 독수익은 3억4천만 달러로 46% 증가했다"고 밝

4U 'MTVIJOH /:

혔다. 온라인 독자가 늘면서 온라인 광고수익도 덩달 아 증가했다. 뉴욕타임스는 1996년 온라인판을 도입하고 2011년에는 온라인 유료화를 단행했다. 현재 정 기 구독자는 350만명에 달하며 그 가운데 250만 명이 온라인 유료독자다.


A38

Saturday, February 10, 2018

www.FindAllNY.com

LA타임스, 중국계 의사에게 매각 억만장자 순시옹씨, 5억불에 인수

미국 서부의 대표적인 일간지 LA타임스 가 중국계 미국인 의사에게 5억달러에 매 각된다. 화제의 인물은 LA의 억만장자 외과의사 인 패트릭 순시옹(65·사진)씨이며, 그는 LA타임스 및 자매신문 샌디에고 유니온 트리뷴을 함께 인수한다.

LA타임스는 미국에서 여섯째로 구독자 (43만명)가 많은 일간지다. 남아프리카공화국의 중국계 가정 출신인 순시옹은 남아공에서 대학을 나온 뒤 미국 으로 이주해 바이오테크 기업들을 설립, 매각하면서 재산을 불렸다. 포브스는 순 시옹의 자산을 78억달러로 추산하고 있다.


www.FindAllNY.com

2018년 2월 10일 (토)

A39


A40

Saturday, February 10, 2018

www.FindAllNY.com

세계최고 '가상화폐 부자는 80억불 보유한 크리스 라센 2위 이더리움 창업자 조셉 루빈…한국인으론 송치형 사장 유일

가상화폐 '리플' 창업자인 크리스 라 센이 세계 최고 가상 화폐 부호로 나 타났다. 포브스지는 라센 등 가상 화폐를 통 해 세계적 부자의 반열에 오른 19명을 발표했다. 포브스는 "지난달 19일 기

준으로 개인들이 보유한 가상 화폐 가 격과 가상 화폐 관련 사업 지분을 종 합해 순위를 매겼다"고 밝혔다. 이후 가상 화폐 가치가 급락한 점을 감안하 면 리스트에 등장한 부호들의 자산은 평가 당시보다 20% 이상 줄어든 것으

로 추정된다. 포브스에 따르면 라센은 80억달러의 자산을 가진 것으로 평가됐다. 리플 51 억9000만개를 가지고 있는 라센은 가 상 화폐 가격이 급등했던 1월 초에는 자산 규모가 600억달러를 넘어서면서 미국 5위의 부호인 오라클 창업자 래 리 엘리슨을 앞서기도 했다. 2위는 시가총액 2위의 가상 화폐 이 더리움 공동 창업자인 조셉 루빈이었 다. 그가 보유한 이더리움 가치는 50억 달러에 이른다. 홍콩 가상 화폐 거래 소 바이낸스의 자오장펑 최고 경영자 는 20억달러로 3위를 차지했다. 바이 낸스에서 이뤄지는 가상 화폐 거래 건 수는 초당 140만건에 이른다.

4위는 '미국 하버드대 재학 시절 마 크 저커버그에게 페이스북 아이디어 를 도용당했다'고 주장해 유명해진 캐 머런과 타일러 윙클보스 쌍둥이 형제 였다. 윙클보스 형제는 2012년 비트코 인 가격이 120달러이던 시절 전 세계 비트코인 유통량의 1%에 해당하는 12 만개를 사들였다. 비트코인 가격은 지 난해에만 6배 올랐고, 윙클보스 형제 가 처음 비트코인을 사들인 시점과 비 교하면 한때 700배까지 폭등하기도 했 다. 윙클보스 형제의 자산 가치는 11억 달러로 평가됐다. 이더리움의 개념과 프로그램 설계를 주도한 24세의 러시아계 캐나다인 비 탈릭 부테린은 자산 5억달러의 최연소

가상 화폐 부호로 리스트에 이름을 올 렸다. 한국인 중에서는 가상 화폐 거 래소인 업비트를 운영하는 두나무의 송치형 창업자가 포함됐다. 포브스는 "업비트는 창업 3개월 만에 세계 3대 가상 화폐 시장인 한국에서 최대 거래 소가 됐다"며 "그의 자산은 3억5000만 ~5억달러 수준인 것으로 평가된다"고 했다. 송치형 창업자는 두나무 지분의 30% 이상을 보유하고 있는 것으로 알 려져 있다. 비트코인 창시자인 익명의 프로그래 머 나카모토 사토시는 이번 리스트에 포함되지 않았다. 2009년 최초의 가상 화폐 비트코인을 만든 나카모토는 100 만 비트코인(80억달러 상당)을 소유 한 것으로 알려져 있다. 하지만 나카 모토의 실체가 여전히 밝혀지지 않아 포브스 리스트에서는 제외됐다.


www.FindAllNY.com

2018년 2월 10일 (토)

교회·종교

CHURCH & RELIGION 교 회 | 신앙생활 | 종교 | 칼럼

미동부 평창 올림픽 찬양선교단 파송예배 뉴욕강원도목사회 주최 미동부 평창 올림 픽 찬양선교단 파송예배가 2월 4일(주일) 오후 7시 뉴욕평화교회(담임 임병남 목사) 에서 열렸다. 이 자리에서 강원도목사회 회장 장석진 목사는 '너는 일어나 가라(행 8:26)'의 제목 의 설교를 통해 "이번 평창올림픽 찬양선교 단으로 신앙심이 있고 퀄리티있는 CBSN 올림픽합창단이 가게 된 것을 볼 때 이보 다 더 좋은 합창단이 있을 수 없다는 생각 이 들었다."며 "찬양선교단은 하나님이 파 송하는 것이다"고 강조했다. 장 목사는 또 "이들은 하나님의 부름에 동 참한 것이며 성령님의 강력한 부르심에 순 종한 분들이다."며 "주님의 이름으로 파송

합니다."라고 선포했다. 이날 강목회는 찬양선교단원에게 기념품( 십자가 목걸이)와 기금을 전달했다. 파송예배는 1부 예배와 2부 파송예식으로 진행됐다 예배는 사회 현영갑 목사(사무총 장) 기도 김택용 목사 찬양 선교합창단 설 교 장석진 목사 축도 임병남 목사(뉴욕평 화교회 담임)의 순으로 진행됐다, 파송예식 은 예식사 현영갑 목사 조직소개 문석진 목 사(자문위원장) 출연진 소개/공연일정 소 개 김태수 목사 특별출연 유진웅 교수 격려 사 한재홍 목사(교협증경회장단 회장 기념 품 증정 장석진 목사 기금전달 현영갑 목사 폐회기도 장석진 목사의 순으로 이어졌다. <기독뉴스>

A41


A42

Saturday, February 10, 2018

여성·건강

www.FindAllNY.com

WOMEN·HEALTH 여성| 건강| 패션 | 메이크업| 뷰티 | 요리 | 생활

일상 속 사소한 습관이 당신의 건강을 해친다 사람마다 아무 생각 없이 하는 행동 들이 있다. 대표적으로는 엎드려 자 기, 가방 한쪽으로 메기 등인데 이러 한 버릇들은 사소하지만 지속적으로 누적되면 우리의 건강을 상당히 해치 게 될 수 있다. 엎드려 잠을 자는 경우 안면 부종이 생길 수 있음은 물론 허리에 무리가 와 통증을 유발할 수 있다. 또한, 이로 인해 척추가 간이나 위, 장 등 신체의 각종 기관을 압박하여 소화, 호흡 기 능에도 악영향을 미칠 수 있어 잘 때 는 되도록 엎드리지 않는 것이 좋다. 많은 사람이 간편하다는 이유로 애 용하는 숄더백. 하지만 이러한 숄더 백은 건강에는 독약 같은 존재이다. 어깨 한 쪽으로 모든 무게를 감당해 야 하기 때문에 척추의 균형이 깨져 척추 관절에 무리가 가게 되며, 이러 한 증상이 지속되면 디스크 및 척추 측만증으로까지 발전할 수 있다. 다리를 꼬고 앉는 것은 꽤 많은 사

람에게서 나타나는 버릇 중 하나이 지만, 사실 이는 골반을 틀어지게 하 는 가장 나쁜 버릇이기도 하다. 다리 를 꼰 채 오랜 시간 동안 앉아 있으면 고관절이 한쪽으로 회전되어 무리가 갈 수 있기 때문이다. 특히 한 쪽 방향 으로만 지속적으로 다리를 꼬게 되면 다른 쪽 골반에 체중이 실리면서 근 육이 뭉치고 통증이 오는 등 다양한 부작용이 나타날 수 있다. 다른 일을 하며 전화를 받다 보면, 자연스럽게 전화기를 머리와 어깨 사 이에 끼우게 되기 마련이다. 하지만 이는 목 주변 근육을 긴장시켜 두통, 견비통을 불러오게 되며, 이러한 현 상이 지속되면 근육의 탄력이 떨어져 일자목이 될 가능성이 크다. 더불어 목의 인대가 지속해서 늘어나게 되어 만성 경추염좌로 발전할 수도 있다. 좌식 문화가 발달한 한국의 특성상 많은 사람이 빈번하게 양반다리를 하 고 앉게 된다. 하지만 편하게 느껴지

는 이 자세도 우리의 척추와 무릎의 건강을 위협하는 나쁜 버릇 중 하나 이다. 양반다리를 하고 앉으면 고관 절이 돌아가게 되어 팔자걸음을 유발 하게 되며, 이로 인해 보행의 안정감 이 떨어져 허리 통증과 척추 협착으 로 발전될 수 있다. 또한 다른 자세 에 비해 무릎이 과다하게 꺾여 무리 를 줄 수 있으므로 무릎 건강이 좋지 않은 사람은 더더욱 지양해야 할 자 세이다. 초조하거나 스트레스를 받으면 습 관적으로 손톱이나 주변살 부분을 물 어뜯는 사람이 있다. 손톱을 물어뜯 으면 손톱에 있는 수많은 세균이 체 내로 들어가게 된다. 또한 손톱 주변 살을 물어 뜯으면 손톱 모양에 영향을 줘서 울퉁불퉁한 모양이 되거나 예쁘 지 않게 변형된다. 이런 습관은 어렸 을 때 형성된 경우가 많으며 주변 어 른이 버릇을 고치도록 신경을 써줘야 한다. 성인이 되어서도 손톱을 물어

뜯는 사람은 매니큐어를 발라 의식적 으로 습관을 고쳐나갈 수 있다. 숙면을 취할 수 있다고 생각하여, 혹 은 잠이 잘 안 와서 자기 전에 술을 마 시는 사람들이 있다. 술이 잠을 자게 해 주었던 경험이 있기 때문이다. 그 러나 자기 전 음주하는 습관은 오히 려 숙면을 방해한다. 음주로 인해 잠 이 빨리 들 수는 있겠지만 좋은 수면 이 유지 되지 못하기 때문에 오히려 피곤해질 수 있다. 그런데도 술을 마 셔야만 잠이 드는 사람은 그 양을 조 절해야 한다. 성별 체격에 따라, 개인 차가 있지만, 일반적으로 맥주는 한

캔, 소주는 소주잔으로 한 잔, 와인은 120cc정도 이다. 양치질을 세계 하면 치아 표면을 보 호하는 에나멜질이 약해질 수 있다. 강한 힘으로 닦다가 상아질이 노출되 면 충치가 잘 생길 수 있다. 이것이 지 속될 경우 잇몸 쪽 치아 부분이 많이 파이는 현상(피경부 마모증)이 생길 수도 있다. 너무 앞뒤로 세게 닦거나 수평적으로 왕복운동을 반복하지 말 아야 한다. 올바른 양치 방법은, 연령 에 따라 다를 수 있으므로 정기검진 을 받는 치과에서 상담받는 것이 좋 다.


www.FindAllNY.com

2018년 2월 10일 (토)

A43


A44

Saturday, February 10, 2018

www.FindAllNY.com


www.FindAllNY.com

2018년 2월 10일 (토)

A45


A46

Saturday, February 10, 2018

www.FindAllNY.com


www.FindAllNY.com

2018년 2월 10일 (토)

"GM, 한국서 철수할 가능성 높아" 계속되는 실적 부진, 한국의 강성노조 원인

제너럴모터스(GM)의 한국시장 철수 가능성이 높아지고 있다. GM 본사가 장기간 실적 악화와 판매 부진에 빠진 한국GM에 대해 더 이상 사 업을 이어가기 어렵다는 뜻을 밝혔기 때문이다. 2년 전 최초로 회장 겸 CEO를 겸직한 메리 바 라 GM 회장은 “현재와 같은 구조로는 사업을 이 어가기 매우 어려운 상황”이라며 “생존이 가능 한 사업을 만들기 위해 새로운 조치를 취할 것” 이라고 말했다. 외신들은 이에 대해 GM의 한국시장 철수 가능 성을 염두에 둔 발언이라고 해석했다. 블룸버그 는 데이비드 위스턴 모닝스타 투자분석가의 발 언을 인용해 “한국GM이 그 동안 보여온 행보를 고려할 때 ‘완전한 철수’가 예상된다”고 전했다. 자동차 업계에서는 최근 몇 년간 지속돼 온 적

자와 판매 부진, 강성노조 문제 등을 고려할 때 GM이 한국시장을 떠날 가능성도 크다는 전망 이 나오고 있다. 한국GM은 최근 3년 동안 1조3000억원에 이르 는 적자를 기록했다. 가동률이 20~30%에 불과 한 군산 공장의 고정비용 손실 등을 고려하면 올 해도 대규모 손실을 피할 길이 없다. 최근 판매량 부진은 계속 심화되고 있다. GM이 당장 한국시장 철수나 매각 결정을 내 려도 이를 막을만한 별다른 수단이 없는 상황이 다. 지난해 10월 산업은행이 갖고 있던 GM의 지 분 매각에 대한 거부권 효력이 끝났기 때문이다. GM 본사 측은 그 동안 수 차례 한국의 강성노 조 문제를 거론하며 불만을 제기해 왔다.

A47


A48

Saturday, February 10, 2018

www.FindAllNY.com

"아무리 많은 돈·권력 있어도…" 마윈회장이 말한 '알리바바 성공' 비결은?

“인공지능(AI), 로봇은 절대 인간을 대체할 수 없다. 알파고가 사람보다 바둑을 더 잘 둘 수 있 게 된 것은 과거 자동차가 발명됐을 때 기계가 사 람보다 빨리 달릴 수 있게 된 사실과 같다. 인간 은 기계와 경쟁할 필요가 없다. 기계는 절대 할 수 없는 일을 해야만 한다.” 마윈 알리바바 회장은 연세대에서 열린 한 행사 에서 또 “인공지능은 인간을 통해 배우지만, 우 리는 뇌에 대해서 5~8% 밖에 알지 못 한다”며 “ 인공지능이 이 정도를 배워서는 인간을 이길 수 는 없다”고 덧붙였다. 아울러 알리바바의 성공으로 청년, 여성 고용 을 핵심으로 꼽았다. 알리바바 임직원의 평균 연 령이 33세이며, 49%가 여성이다. 그는 “여성은 남성보다 본능적으로 돌보는 성향이 있다. 남편

도, 자녀도, 부모도 돌본다. 우리가 살아가는 세 상은 근력의 싸움이 아니라 지혜의 싸움이다. 돌 봄의 경쟁을 하는 시대에 고객의 사랑을 받는 기 업이 되려면 이 마법의 요소를 더해야만 한다” 고 말했다. 또 “기업에 젊은이가 많으면 좋은 아이디어를 많이 만들어내고 있으며 이들이 미래의 에너지 원”이라면서 “청년을 고용해서 미래에 대한 걱 정을 덜고, 여성을 충분히 뽑아서 완벽한 회사가 되어야만 한다”고 덧붙였다. 마 회장은 “사람들은 마윈, 알리바바를 똑똑하 다고 하지만 우리는 실수로부터 배울 뿐이다”라 며 “언젠가 직접 책을 쓰게 된다면 알리바바의 1001개의 실수를 적어 우리의 실수로부터 젊은 세대들이 배울 수 있게 하고 싶다”고 말했다.


www.FindAllNY.com

2018년 2월 10일 (토)

A49


A50

Saturday, February 10, 2018

www.FindAllNY.com


www.FindAllNY.com

2018년 2월 10일 (토)

A51

뚜레쥬르 등 자본잠식 프랜차이즈들 경영난 가중 파파존스, 미스터 피자 적자운영…커피전문점은 스타벅스 빼고 적자 빵집 ‘뚜레쥬르’를 운영하는 CJ푸드 빌 등 일부 프랜차이즈 업체들이 자본 이 완전 잠식되는 등 재무난을 겪고 있 다. 올해부터 적용된 최저임금 인상에 더해 제빵기사 등 협력업체 직원 고용 안정 문제 등이 확산되면 이들 업체의 재무난은 더 가중될 수 있다는 우려가 나온다. 가맹본부의 재무난이 심화되면 이미 지 추락, 마케팅 축소, 각종 지원 제한 등으로 가맹점 매출이 줄고 이는 가맹 본부 매출에도 부정적 영향을 주는 악 순환으로 이어질 수 있다. 한국신용평가에 따르면 CJ푸드빌은

작년 9월말 연결 기준 자본총계가 마 이너스(-) 145억원으로 자본이 완전 잠식됐다. 이 회사의 자본이 바닥난 것은 2014년 이후 3년만이다. CJ푸드빌은 수익이 좋은 커피 프랜 차이즈 ‘투썸플레이스’를 분사시켜 일 부 지분의 매각도 고려하고 있다. CJ 푸드빌 자본잠식은 해외 빵 사업 부진 이 배경이다. CJ푸드빌은 중국 북경 에서 뚜레쥬르 사업이 매년 약 90억원 씩 손실을 내고 있다. 일본(-24억원), 베트남(-16억원)을 포함하면 해외에 서 낸 1년간 낸 손실이 153억원에 달 한다.

한국내 분위기도 심상치 않다. 뚜레 쥬르는 파리바게뜨 제빵기사 직고용 여파로 현재 제빵기사 임금 인상을 추 진 중이다. 피자 프랜차이즈를 운영하는 한국파 파존스도 부채비율이 1336%에 달하 고, 자본 90%가 잠식됐다. 파파존스는 40개의 직영점과 74곳의 가맹점을 운 영 중이다. 미스터피자를 운영하는 MP그룹은 지난해 9월말 기준 약 44억원의 당기 순손실을 냈다. 가맹점 수는 311곳이 다. 이미지 추락으로 가맹점들의 수익 이 급감했고 이를 견디다 못한 가맹점

50여 곳은 사업을 접었다. 애슐리·자연별곡 등을 운영 중인 이랜드파크는 지난 2016년 804억원의 당기순손실을 냈다. 커피 프랜차이즈 사업은 경쟁이 치열해 승자독식 현상 이 심화되고 있다. 스타벅스를 제외한 곳은 적자를 내거나 자본이 잠식된 곳 도 많다.

20세에 800만원으로 시작…30세에 300억원 달성 자신이 직접 관리했다. 창업 2년 만에 월 매출 3억 원이 되면서 회사에 과부 하가 걸리자 한 달에 2번은 주문을 받 지 않고 대신 전 직원 세미나를 실시 했다. 연장근무를 금지하고, 비용을 회사가 부담해 문화활동을 권장하고, 자녀가 있는 여성들을 배려하는 등의 복지정책을 초기부터 실시했다. 원가 비율이 높은 것에 상관하지 않고 모

든 재료를 일류 회사에서 구매했으며 안전한 배송을 위해 비싼 우체국 택 배를 이용했다. 사람을 중시하고 퀄 리티를 중요하게 여기는 철학과 행동 은 매출로 이어졌다. ★사업에서 가장 중요한 건 '사람' 2016년 동원그룹에 더반찬을 매각 한 후 동원홈푸드 상무로 영입된 그 는 2017년 1월에 사직하고 바로 새로

운 사업 구상에 들어갔다. 지난 1년간 강남역 인근의 공유 오피스에서 8명 의 직원과 함께 면밀하게 준비한 끝 에 3월부터 무인 스토어 사업을 시작 한다. 전국 200만 개의 소매점이 빠르게 무인 스토어로 바뀔 거라고 예상하는 그는 데이터 수집부터 관리, 결제까 지 디지털이 더 정확하기 때문에 고

객들의 반응이 좋을 것이라고 낙관 했다. 그는 사업에 있어서 가장 중요한 것 을 ‘사람’으로 뽑았다. 각각 살아온 환경이 다르고 커리어 가 다른 사람들을 바꾸려고 하기보다 철학과 이념이라는 골조를 잘 세워 서, 리더쉽을 잘 발휘하는게 중요하 다고 강조했다.

국내 100여곳의 가맹점을 운영중인 커핀그루나루는 완전 자본잠식 상태 다. 국내 410곳의 매장을 운영중인 탐 앤탐스도 2016년부터 적자를 내고 있 다. 한국야쿠르트가 운영하는 커피전 문점 코코브루니, 롯데가 운영하는 엔 제리너스 등도 수년째 적자를 내고 있 다.


발행인 이명석

33-70 Prince St. #601, Flushing, NY 11354

T. 718-359-0700 / 718-353-3805

F. 718-353-2881

E. findallny@gmail.com 2018년 2월 10일 (토) SAT.

20세에 800만원으로 시작 30세에 300억원 신화 달성

전종하 전 대표는 28세의 나이에 온 라인 푸드마켓 '더반찬'으로 성공을 거두었다. 경영자일 땐 한사코 인터뷰를 피했 던 그가 서른을 맞이해 내놓은 책과 함께 만남에 응했다. 대학 진학 대신 20세에 부모님의 식당에서 창업, 10년도 안돼 월 매출 25억 원에 직원 160명으로 성장시켰 다. 그후 기업을 동원그룹에 300억 원에 매각한 후, 최연소 대기업 상 무로 입성했다. 그리고 만 30세에 책 도 냈다. 그는 이미 20대에 10년마다 책을 한 권씩 내기로 결심했고, 이번에 책을 낸 것이다. 그는 기업 운영에서 공격보다 수비 에 더 치중하는 스타일이다. 초등학교 때부터 그는 채소 가게를

하는 부모님을 도우며 저절로 시장 의 법칙을 익힌 것이다. 고등학교 때 리니지 게임에 빠져 살면서 전국 유 일의 고교생 성주에 등극, 5000만 원 을 벌어들이며 저절로 경영에 눈을 떴다. 명문대를 졸업하고 삼성에 다 니는 형과 달리 공부를 해도 성적이 오르지 않자 고교를 졸업한 뒤 사업 을 결심한 것도 남다른 선택이다. 진로를 정한 후 1년간 학원에 다니 며 경영 공부에 매진했고, 그 기간에 100년 된 장수회사들의 성공비결을 연구했다. 2008년 7월, 부모님의 식 당 한쪽에서 800만 원으로 온라인 음 식 서비스를 시작할 때부터 '장사'가 아닌 '사업'을 생각했다. "맛은 한 요소일 뿐입니다. 기본이 고 당연한 겁니다. 맛은 기본이고, 그는 소비자 관점

에서 보면 보이지 않는 시스템을 중 요시했다. 반찬이 많을수록 선택의 폭이 넓어지기 때문에 300~400가지 정도 만들어야 했고, 처음엔 그만한 여력이 없으니 50가지를 내놓고, 다 음 주에 다른 반찬 50가지를 내놓는 식으로 운영했다. 자주 들어와도 계 속 프레시하게 보이도록 사이클을 돌렸다. 유니클로와 자라의 생산구 조를 벤치마킹한 것이다." 그가 가장 중요하게 생각한 것은 장수기업들이 지켜온 철학과 이념 이다. 그것으로 인해 장수기업들은 100년 넘게 사업을 이어갈 수 있었 다. 단순히 이윤을 남기겠다는 회사 와 다른 점이었다. 그는 고객의 불만을 접수하는 '콜 센터'를 '커뮤니케이션팀'으로 명명 하고 10명을 정규직으로 채용하여 [A51면에 계속]

주간 기독신문입니다. 구독신청으로 후원해주세요.

뉴욕/뉴저지에서 발행하는

Tel. 347) 538-1587 Email. KidokNewsNY@gmail.com

2.10.18(SAT) 동부벼룩시장  
2.10.18(SAT) 동부벼룩시장  
Advertisement